Nofx - Flossing A Dead Horse Chords & Tabs

 

Flossing A Dead Horse Chords & Tabs

Nofx Chords & Tabs

Version: 1 Type: Bass Tab 0 ratings
1 star 2 stars 3 stars 4 stars 5 stars
comments

Flossing A Dead Horse Bass Tab

Title: flossing a dead horse
Group: NOFX
Tabbed by : Bill (Bassist of Black Eyed Susan)


verse 1

g-------------------------------------------------------------------------------------
d------------4----------------6-4-----------------------------------------------------
a------4-5-7----7-5-4-5-4-2-0-----7-4---4-5-7-4-----------2-4-5-4---4---4-5-7---------
e----5--------------------------------5---------7-5-7-2-5---------7---5---------------

verse 1(cont.)

g---6-7-9-16--14-13----------------------------------------11----13-11-14-13-11-------
d-4-----------------16-14-12-11-------11-12-14-11-12-14-12----14----------------14----
a-------------------------------14-12-------------------------------------------------
e-------------------------------------------------------------------------------------


chorus

g--------------------7777777777777----------------------------------------------------
d-----------------------------------9/////////---(slide
1)----------------------------
a-5----------7-7----------------------------------------------------------------------
e---0-2-2-2------5-5------------------------------------------------------------------

[ Tab from: http://www.guitartabs.cc/tabs/n/nofx/flossing_a_dead_horse_btab.html ]
verse 2

g-------9-------14-13-11----------------11-13-14-13-11----------------11------11------
d-----4---12-11----------11-12-14-12-14----------------14-11-11-----------------------
a---4-----------------------------------------------------------14-12----9-7----------
e-5-----------------------------------------------------------------------------------


verse 2(cont.)

g--------------------------------------------------------------------------4----------
d-9-11-12-11----------4----------------6-4---------------------4---6-4-7-6---7--------
a--------------4-5-7----7-5-4--5-4---------7-4---4-5-7-4-5-7-5---7--------------------
e------------5---------------------7-5---------5--------------------------------------


End

g-------------------------------------------------------------------------------------
d-------------------------------------------------------------------------------------
a----------------5>>>>>-7>>>>>--------4>>>>>--------5>>>>>----------------------------
e--5>>>>>-2>>>>>---------------5>>>>>--------2>>>>>-----------------------------------



This is a cool bass line from a cool band. E-mail me at
wcorbin@bellsouth.net and I'l tab out whatever you want.
Comments