Nofx - Falling In Love Chords & Tabs

 

Falling In Love Chords & Tabs

Nofx Chords & Tabs

Version: 1 Type: Tab 0 ratings
1 star 2 stars 3 stars 4 stars 5 stars
comments

Falling In Love Tab

   
FALLING IN LOVE by NOFX. Album : So long and thanks for all the shoes (1997)
This song tells all about how perfectly NOFX can use two guitars! Great   1/2
lyrics also. 
A=Melvin   B=El Hefe   A&B=both
:
# intro #A X3 !real quietly!
E-----------------------------------------|
B-----------------------------------------|
G--1212-----------------------------------|
D--1212-7-----5-5-4-----5-5-4-----5-5-5---|
A--1010-9-----7-7-5-----3-3-5-----5-5-5---|
E---------------------------------3-3-3---|
# intro #B X3                
E-----------------------------------------|
B-----------------------------------------|
G-----------------------------------------|
D---5-5-4-----5-5-4-----5-5-4-----5-5-5---|
A-----------------------------------------|
E-----------------------------------------|
:
:
# intro2 #A
E-----------------------------------------|
B-----------------------------------------|
G--1212-----------------------------------|   
D--1212-7-----5-5-7-----9-910-7---5-5-5---|     
A--1010-9-----7-7-7-----9-910-9---5-5-5---|     
E---------------------------------3-3-3---|
# intro2 #B
E-----------------------------------------|
B-----------------------------------------|   > Then play AintroA or BintroB
G-----------------------------------------|     and Aintro2A or Bintro2B
D---5-5-4-----5-5-7-----9-9-5-7-4-5-5-5---|     (without last two notes)
A-----------------------------------------|
E-----------------------------------------|
:
# bridge #A   Find the playing times yourself
E---------------------------------------------------------------------------|
B---------------------------------------------------------------------------|
G-----------------------------------------------------------------------8---|
D---5-------8-7---------------------------------------------------------8---|
A---------------8---------------6-------5-------6---10--8------10-------6---|
E---------------------------------------------------------------------------|
# bridge #B   Find the playing times yourself                         
E---------------------------------------------------------------------------|
B---------------------------------------------------------------------------|
G-------------5-7-----8-7-5---------------------------8-7-------8----7------|
D---8---------------------------8---5-------7---8----5------------------8---|
A---------------------------------------------------------------------------|
E---------------------------------------------------------------------------|
:
# verse #A&B   !play all notes X12!
E---------------------------------------------------------------|
B---------------------------------------------------------------|
G------------------10---------------8-----------------------8---|
D---5-------8------10------10-------8-------8------10-------8---|
A---5-------8-------8------10-------6-------8------10-------6---|
E---3-------6---------------8---------------6-------8-----------|
:
>>>>>>>to next page...
:
:
:
:
:
:
:
:
FALLING IN LOVE                                                          2/2
:
# outro #A   *=play 12X   #=play 6X
E---------------------------------------------------------------|
B------------*-------*-----------------------*-------*----------|
G----*------8------10--------#-------*------8------10-----------|
D---5-------8------10-------8----#--5-------8------10-------5---|
A---5-------6-------8-------8---3---5-------6-------8-------5---|
E---3-----------------------6---5---3-----------------------3---|
# outro #B   *=play 84X
E---------------------------------------------------------------|
B---------------------------------------------------------------|
G----*----------------------------------------------------------|
D---8-------------------------------------------------------9\--|
A---------------------------------------------------------------|
E---------------------------------------------------------------|
:
No talent?!
Jussi Heinonen 27.09.1998.

[ Tab from: http://www.guitartabs.cc/tabs/n/nofx/falling_in_love_tab.html ]
Comments