Nofx - Electricity Chords & Tabs

 

Electricity Chords & Tabs

Nofx Chords & Tabs

Version: 1 Type: Bass Tab 0 ratings
1 star 2 stars 3 stars 4 stars 5 stars
comments

Electricity Bass Tab

   
Nofx: Electricity
Tabbed By: stuporman_20
Email:stuporman_20@hotmail.com

Intro

G|------------------------------|
D|--5-------5-------5------5----|
A|------------------------------|
E|------3-------3------3--------|

Pre-Verse

G|-------------------------------|
D|-------------------------------|
A|-------------------------------|
E|555-555-555-555-511-111-111-111|

Continued Pre-verse

G|-------------------------------|
D|-------------------------------|
A|-33-333-333-333-3--------------|
E|1----------------33-333-333-333|

Verse    *=play x16
[ Tab from: http://www.guitartabs.cc/tabs/n/nofx/electricity_btab.html ]
G|------------|
D|------------|
A|-------3*---|  X2
E|-5*-1*----3*|
One source of energy...

After Verse part

G|--------------|              G|-------------|
D|-77775555-----|X2  Then...   D|-55553333----|
A|---------7755-|              A|--------5533-|
E|-------------5|              E|------------3|

Outro

G|-----------------------|
D|-----------------------|
A|-----------------------| Until End
E|555-555-555-555-555-555|

Order

Intro
Pre-verse
Verse
After Verse part
Pre-verse
Verse
After Verse part
Outro

This is my first tab, so email me with any questions/comments.
It'd be nice to know that I know what the hell I'm doing.
Comments