Nofx - Eddie Bruce And Paul Chords & Tabs

 

Eddie Bruce And Paul Chords & Tabs

Nofx Chords & Tabs

Version: 2 Type: Tab

Eddie Bruce And Paul Tab

   
-----------------------------------------------------------------------------
			     Eddie, Bruce and Paul - NOFX
-----------------------------------------------------------------------------
Tabbed by: Gaggson (feat. Tok-e-yo John) btw. BIG THANKS

Tuning: Standard


Something's wrong with the other tabs....so here's mine! Enjoy!

Intro
e|------------------------------------------------------------------------|
B|------------------------------------------------------------------------|
G|----------------------7-/-9-9--12------7--------------------------------|
D|----------------------5-/-7-7--12------7--------------------------------|
A|-0-0-0-3-0-0-5-0-6-0-----------10------5--------------------------------|
E|------------------------------------------------------------------------|
 
Verse
e|-------------------------------------------|
B|-------------------------------------------|
G|---------------7---------------------------|
D|---7---7---4---7---------------------------|
A|---7---7---4---5---------------------------|
E|---5---4---2-------------------------------|

e|-------------------------5-----------------|
B|-------------------------6-----------------|
G|-------7-------9-------7-7-----------------|
D|---4---7---7---9---9---7-7-----------------|
A|---4---5---7---7---9---5-5-----------------|
E|---2-------5-------7-----------------------|

Bridge                                                          |-PM-|
e|--------------------------------------------------------------------------|
B|--------------------------------------------------------------------------|
G|----------------------------------12-/-14---------------------------------|
D|---7----------------------5---4---------------------------------5-4-------|
A|---7---0-3-0-5-0---0-3-0--5---4---10-/-12---3-0-5-0--0-3-0------5-4-------|
E|---5----------------------3---2---------------------------------3-2-------|


Bridge II - Repeat a few times          
e|----------------------|
B|----------------------|
G|----------------------|
D|----------------------|
A|------0-3-0-5-0-------|
E|----------------------|

[ Tab from: http://www.guitartabs.cc/tabs/n/nofx/eddie_bruce_and_paul_tab_ver_2.html ]
Solo - Background - repeat this too
e|--------------------------------------------------------------------------|
B|--------------------------------------------------------------------------|
G|--------------------------------------------------------------------------|
D|--7---5---3---5------------7----------------------------------------------|
A|--7---5---3---5------------7----------------------------------------------|
E|--5---3---1---3---endon----5----------------------------------------------|

e|---------------------------------------------------------|
B|---------------------------------------------------------|
G|---5-7-----------7~----------------7~--------------------|
D|---5-7-5-7~--5~--7~--7~---7~--5~---7~---7~---------------|
A|---3-5-5-7~--5~--5~--7~---7~--5~---5~---7~---------------|
E|-------3-5~--3~------5~---5~--3~--------5~---------------|

Two times 
e|----------------------------------------|
B|----------------------------------------|
G|---5-7-----------7----------------------|
D|---5-7-5-7---5---7---7------------------|
A|---3-5-5-7---5---5---7------------------|
E|-------3-5---3-------5------------------|


Two times           * = PM
e|-----------------------------------------------------------------|
B|-----------------------------------------------------------------|
G|---5-7-------------------------------------7---------------------|
D|---5-7-5-7---*--5--4--7--5---*---5--4--5---7---5--4--5--7---*----|
A|---3-5-5-7--7---5--5--7--5--5----5--5--5---5---5--5--5--7--7-----|
E|-------3-5--5---------5--3--3------------------------3--5--5-----|

Outro
e|---------------------------------|
B|---------------------------------|
G|---5-7-5-7~---5~-----------------|
D|---5-7-5-7~---5~---7~------------|
A|---3-5-3-5~---3~---5~------------|
E|-------------------5~------------|


That's it - for any corrections - make your own ;-)

************************************

| /   slide up
| \   slide down
| h   hammer-on
| p   pull-off
| ~   vibrato
| +   harmonic
| x   Mute note
| b   Bend
| pb  Pre-bend
| br  Bend release
| pbr Pre-bend release
| brb Bend release bend

************************************