Nofx - Dying Degree Chords & Tabs

 

Dying Degree Chords & Tabs

Nofx Chords & Tabs

Version: 1 Type: Bass Tab 0 ratings
1 star 2 stars 3 stars 4 stars 5 stars
comments

Dying Degree Bass Tab

----------------------------------
DYING DEGREE / Nofx
----------------------------------

Tabbed by Carlos Pino

G|----------------------------------------------------------------| cont.
D|------------------------------------------------------------------
A|-7777-xx-77-77-77-0-3333-5555-0-7777-xx-77-77-77-0-7777-5555----|
E|----------------0-----------0------------------0--------------|


G|---------------------------------------------------------|
D|-------------------------------------------------------------
A|-7777-xx-77--77-77-0--3333---------0--5555-5555-33333333-------|
E|-----------------0-----------0--------3333--------------------3/----|
[ Tab from: http://www.guitartabs.cc/tabs/n/nofx/dying_degree_btab.html ]
G]-----------------------------------------------
D]------------------------------------------------
A]------------------------------------------------
E]---0-5-7-0-5-7-0-5-7---------------------

Chorus
G|-----------------------------------------------------------------------|
D|---------------------------------------------------------------------|
A|------------------------------33333333-55555555----------|
E|-33333333-0000--------------------------------------------|

Then just start over from the beggining

The part after
G|---------------------------------------------------------------|
D|-----------------------------------------------------------------
A|-55555555----------------55555555-33333333-----|
E|----------------33333333----------------------------------|

Then play the chorus again.
Comments