Nofx - Drugs Are Good Chords & Tabs

 

Drugs Are Good Chords & Tabs

Nofx Chords & Tabs

Version: 8 Type: Tab 0 ratings
1 star 2 stars 3 stars 4 stars 5 stars
comments

Drugs Are Good Tab

hi im snbritishfreak(snbritishfreak@hotmail.com) hoping to add a decent drugs are good
tab on here. this is reely quite correct so enjoy!



Intro x 4
e|-------------------------------------------------------------------------|
B|-------------------------------------------------------------------------|
G|-------------------------------------------------------------------------|
D|-------------------------------------------------------------------------|
A|-------------------------------------------------------------------------|
E|-0-3-4-5-----------------------------------------------------------------|

Pre Verse x 1
e|-------------------------------------------------------------------------|
B|-------------------------------------------------------------------------|
G|--------4-5-5-5-x-x-5-5-5-----10-10-10-x-x-------------------------------|
D|-7-7-7--4-5-5-5-x-x-5-5-5-5---10-10-10-x-x-------------------------------|
A|-7-7-7--2-3-3-3-x-x-3-3-3-5---8--8--8--x-x-------------------------------|
E|-5-5-5--------------------3----------------------------------------------|

e|--------------------------3-3-3-3-3--------------------------------------|
B|--------------------------3-3-3-3-3--------------------------------------|
G|--------4-5-5-5-x-x-4-4-4-4-4-4-4-4--------------------------------------|
D|-7-7-7--4-5-5-5-x-x-5-5-5-5-5-5-5-5--------------------------------------|
A|-7-7-7--2-3-3-3-x-x-5-5-5-5-5-5-5-5--------------------------------------|
E|-5-5-5--------------3-3-3-3-3-3-3-3--------------------------------------|

e|-------------------------------------------------------------------------|
B|-------------------------------------------------------------------------|
G|--------4-5-5-5-x-x-5-5-5-----10-10-10-x-x-------------------------------|
D|-7-7-7--4-5-5-5-x-x-5-5-5-5---10-10-10-x-x-------------------------------|
A|-7-7-7--2-3-3-3-x-x-3-3-3-5---8--8--8--x-x-------------------------------|
E|-5-5-5--------------------3----------------------------------------------|

e|-------------------------------------------------------------------------|
B|-------------------------------------------------------------------------|
G|--------4-5-5-5-x-x------------------------------------------------------|
D|-7-7-7--4-5-5-5-x-x-55555555---------------------------------------------|
A|-7-7-7--2-3-3-3-x-x-55555555---------------------------------------------|
E|-5-5-5--------------33333333---------------------------------------------                          
                       *******
[ Tab from: http://www.guitartabs.cc/tabs/n/nofx/drugs_are_good_tab_ver_8.html ]
Verse x 2
e|-------------------------------------------------------------------------|
B|-------------------------------------------------------------------------|
G|--------------5-5-5-5-5-5--5-5-5-5-5-5--10-10-10-10-10-10----------------|
D|-7-7-7-7-7-7--5-5-5-5-5-5--5-5-5-5-5-5--10-10-10-10-10-10----------------|
A|-7-7-7-7-7-7--3-3-3-3-3-3--3-3-3-3-3-3---8--8--8--8--8--8----------------|
E|-5-5-5-5-5-5-------------------------------------------------------------|

e|-------------------------------------------------------------------------|
B|-------------------------------------------------------------------------|
G|--------------5-5-5-5-5-5------------------------------------------------|
D|-7-7-7-7-7-7--5-5-5-5-5-5--5-5-5-5-5-5--5-5-5-5-5-5----------------------|
A|-7-7-7-7-7-7--3-3-3-3-3-3--5-5-5-5-5-5--5-5-5-5-5-5----------------------|
E|-5-5-5-5-5-5---------------3-3-3-3-3-3--3-3-3-3-3-3----------------------|





Chorus x 1
e|-------------------------------------------------------------------------|
B|-------------------------------------------------------------------------|
G|------------------------5-5-5-5-------10-10-10-10-10-10------------------|
D|-3-3--5-5--7-7-7-7-7-7--5-5-5-5--5-5--10-10-10-10-10-10------------------|
A|-3-3--5-5--7-7-7-7-7-7--3-3-3-3--5-5---8--8--8--8--8--8------------------|
E|-1-1--3-3--5-5-5-5-5-5-----------3-3-------------------------------------|

Post Chorus x 1
e|-------------------------------------------------------------------------|
B|-------------------------------------------------------------------------|
G|-----------5-5-5-5-5-5------------5-5-5-5-5-5--5-5-5-5-5-5---------------|
D|-7-7--5-5--5-5-5-5-5-5--7-7--5-5--5-5-5-5-5-5--5-5-5-5-5-5---------------|
A|-7-7--5-5--3-3-3-3-5-5--7-7--5-5--3-3-3-3-3-3--3-3-3-3-3-3---------------|
E|-5-5--3-3---------------5-5--3-3-----------------------------------------|

Pre Verse x 1

Verse x 2

Chorus x 1

Post Chorus x 1

Finish x 1
e|-------------------------------------------------------------------------|
B|-------------------------------------------------------------------------|
G|--------4-5-5-5-x-x-5-5-5-----10-10-10-x-x-------------------------------|
D|-7-7-7--4-5-5-5-x-x-5-5-5-5---10-10-10-x-x-------------------------------|
A|-7-7-7--2-3-3-3-x-x-3-3-3-5---8--8--8--x-x-------------------------------|
E|-5-5-5--------------------3----------------------------------------------|

e|-------------------------3-----------------------------------------------|
B|------------------------3------------------------------------------------|
G|--------4-5-5-5-x-x----4-------------------------------------------------|
D|-7-7-7--4-5-5-5-x-x---5--------------------------------------------------|
A|-7-7-7--2-3-3-3-x-x--5---------------------------------------------------|
E|-5-5-5--------------3----------------------------------------------------|
Comments