Nofx - Drugs Are Good Chords & Tabs

 

Drugs Are Good Chords & Tabs

Nofx Chords & Tabs

Version: 7 Type: Tab 0 ratings
1 star 2 stars 3 stars 4 stars 5 stars
comments

Drugs Are Good Tab

This is my first tab and a little is off but not alot.

*=palm mute

e]--------------------------------------------------------------------------|
b]--------------------------------------------------------------------------|
g]--------------------------------------------------------------------------|
d]--------------------------2-2-2-2-------4--5-5-5-5----9-9-9-9--7--5-5-5-5-|
a]--------------------------0-0-0-0-------2--3-3-3-3----7-7-7-7--5--3-3-3-3-|
E]-0-2-3-5---x4-------------------------------------------------------------|   * * * *

[ Tab from: http://www.guitartabs.cc/tabs/n/nofx/drugs_are_good_tab_ver_7.html ]
e]--------------------------------------------------------------------------|
b]--------------------------------------------------------------------------|
g]--------------------------------------------------------------------------|
d]--2-2-2-2-------4--5-5-5-5------------------------------------------------|
a]--0-0-0-0-------2--3-3-3-3-----5-5-5-5-5-5-5-5----------------------------|
e]-------------------------------3-3-3-3-3-3-3-3----------------------------|
                                 * * * * * * * *

Any questions or comments email me at rockinspaceace@yahoo.com
Comments