Nofx - Drugs Are Good Chords & Tabs

 

Drugs Are Good Chords & Tabs

Nofx Chords & Tabs

Version: 1 Type: Chords 1 rating
1 star 2 stars 3 stars 4 stars 5 stars
comments

Drugs Are Good Chords

#----------------------------------PLEASE NOTE---------------------------------#
#This file is the author's own work and represents their interpretation of the #
#song. You may only use this file for private study, scholarship, or research. #
#------------------------------------------------------------------------------##
#

Date: Fri, 23 Aug 1996 23:05:14 -0500
From: Wes 

"Drugs are Good" by NOFX
*palm mute
opening:
[ Tab from: http://www.guitartabs.cc/tabs/n/nofx/drugs_are_good_crd.html ]
E-|-------------------------------------------
A-|-------------------------------------------
D-|------------------------------------*--*--*
G-|----7--7--7----9---10-10-10-10-10--10-10-10
B-|----7--7--7----9---10-10-10-10-10--10-10-10
E-|----5--5--5----7----8--8--8--8--8---8--8--8

E-|------------------------------------------
A-|------------------------------------------
D-|------------------------------------*--*--*
G-|---10-10-10----9----7--7--7--7--7---7--7--7
B-|---10-10-10----9----7--7--7--7--7---7--7--7
E-|----8--8--8----7----5--5--5--5--5---5--5--5

send questions or comments to wilson@traveller.com

Comments