Nofx - Drug Free America Chords & Tabs

 

Drug Free America Chords & Tabs

Nofx Chords & Tabs

Version: 1 Type: Bass Tab 0 ratings
1 star 2 stars 3 stars 4 stars 5 stars
comments

Drug Free America Bass Tab

DRUG FREE AMERICA \ NOFX
---------------------------------------------

By:Carlos pino


G-|-----------------------------------------------------------------
D-|-----------------------------------------------------------------
A-|-5-5-5-5-5-5-5-5------------------------------------------------------
E-|-----------------------6-6-6-6-6-6-6-6-7-7-7-7-7-7-7-7-6-6-6-6-6-6-6-6-

G-|-----------------------------------------------------------------
D-|------------------------------------------------------------------
A-|-5-5-5-5-5-5-5-5---------------------------------------------------
E-|----------------------6-6-6-6-6-6-6-6-7-7-7-7-7-7-7-7-6-6-6-6-6-6-6-6-

G-|-----------------------------------------------------------------
D-|-----------------------------------------------------------------
A-|-5-5-5-5-5-5-5-5-------------------------------------------------
E-|-----------------6-6-6-6-6-6-6-6-7-7-7-7-7-7-7-7-6-6-6-6-6-6-6-6-

G-|-----------------------------------------------------------------
D-|-----------------------------------------------------------------
A-|-5-5-5-5-5-5-5-5-------------------------------------------------
E-|----------------------6-6-6-6-6-6-6-6-7-7-7-7-7-7-7-7-6-6-6-6-6-6-6-6-

G-|-------------------------------------------------------------------------
D-|------------------------------------------------------------------------------
A-|-5-5-5-5------------------------------------------------5-5-5-5-----------------
E-|----------------6-6-6-6-----7-7-7-7-----6-6-6-6-------------------6-6-6-6-----

G-|-------------------------------------------------------------------------
D-|----------------------------------------------------------------------------
A-|-------------------------------5-5-5-5-----------------------------------------
E-|-7-7-7-7-----6-6-6-6--------------------6-6-6-6-----7-7-7-7-----6-6-6-6-----

G-|-------------------------------------------------
D-|----------------------------------------------------
A-|-5-5-5-5-----------------------------------------
E-|----------------6-6-6-6-----7-7-7-7-----6-6-6-6-----

G-|-----------------------------------------------------------------
D-|-----------------------------------------------------------------
A-|-5-5-5-5-5-5-5-5-------------------------------------------------
E-|-----------------------6-6-6-6-6-6-6-6-7-7-7-7-7-7-7-7-6-6-6-6-6-6-6-6-

G-|-----------------------------------------------------------------
D-|-----------------------------------------------------------------
A-|-5-5-5-5-5-5-5-5---------------------------------------------------
E-|-----------------------6-6-6-6-6-6-6-6-7-7-7-7-7-7-7-7-6-6-6-6-6-6-6-6-

G-|----------------------------------------------------------------
D-|--------------------------------------------------------------------------
A-|-5-5---------------------------------------5-5------------------------------
E-|--------6-6-4-6-6--8--8-6-6-4-6-6----------6-6-4-6-6--8--8-6-6-4-6-6-

G-|-------------------------------------------------------------------------
D-|------------------------------------------------------------------------------
A-|-5-5-5-5-5-5-5-5-----------------------8--8--8--8--8--8--8--8-------5-5-5-5-5-5-5-5-
E-|-----------------------6-6-6-6-6-6-6-6-----------------------------------------
[ Tab from: http://www.guitartabs.cc/tabs/n/nofx/drug_free_america_btab.html ]
G-|-------------------------------------------------------------------------
D-|--------------------------------------------------------------------------------
A-|-5-5-5-5-5-5-5-5-----------------------8--8--8--8--8--8--8--8-------5-5-5-5-5-5-5-5-
E-|-----------------------6-6-6-6-6-6-6-6-----------------------------------------

G-|----------------------------------------------------------------
D-|---------------------------------------------------------------
A-|-5-5--8--10--8--5-5---8-10--8--5-5--8-10--8--5-5-------
E-|--------------------------------------------------

G-|-------------------------------------------------------------------------
D-|--------------------------------------------------------------------------------
A-|-5-5-5-5-5-5-5-5---------------------8--8--8--8--8--8--8--8-5-5-5-5-5-5-5-5-
E-|----------------------6-6-6-6-6-6-6-6-----------------------------------------

G-|-------------------------------------------------------------------------
D-|---------------------------------------------------------------------------
A-|-5-5-5-5-5-5-5-5------------------8--8--8--8--8--8--8--8-5-5-5-5-5-5-5-5-
E-|-----------------6-6-6-6-6-6-6-6-----------------------------------------

G-|--------------------------------------------------------
D-|--------------------------------------------------
A-|-5-5--8-10--8-5-5--8-10--8-5-5--8-10--8-5-5-------
E-|--------------------------------------------------

G-|-------------------------------------------------------------------------
D-|------------------------------------------------------------------------------
A-|-5-5-------7-7-------------8-7-5-3-0-3-5---------------5-5-5----------5-5-5---------
E-|--------------------------------------------------5-5-5-5----------5-5-5-5---------5-5-5-5-

G-|------------------------------------------
D-|-------------------------------------------
A-|-5-5-5-5--8-7-5-3-0-3-5--8-10-12-10--8-5--
E-|------------------------------------------

G-|----------------------------------------------------------------
D-|------------------------------------------------------------------------------
A-|-5-5----------------------------------------5-5----------------------------
E-|-------6-6-4-6-6--8--8---6-6-4-6-6---------6-6-4-6-6--8--8-6-6-4-6-6-

G-|-------------------------------------------------------------------------
D-|-----------------------------------------------------------------------------
A-|-5-5-5-5-5-5-5-5------------------8--8--8--8--8--8--8--8-----5-5-5-5-5-5-5-5-
E-|-----------------------6-6-6-6-6-6-6-6-----------------------------------------

G-|-------------------------------------------------------------------------
D-|-------------------------------------------------------------------------------
A-|-5-5-5-5-5-5-5-5-----------------------8--8--8--8--8--8--8--8-----5-5-5-5-5-5-5-5-
E-|-----------------------6-6-6-6-6-6-6-6-----------------------------------------

G-|--------------------------------------------------
D-|-----------------------------------------------------
A-|-5-5--8-10---8-5-5---8-10--8--5-5--8--10--8-5-5-------
E-|--------------------------------------------------

G-|-------------------------------------------------------------------------
D-|----------------------------------------------------------------------------
A-|-5-5-------7-7--------8-7-5-3-0-3-5-----------5-5-5------------5-5-5---------
E-|-------------------------------------------5-5-5-5---------5-5-5-5---------5-5-5-5-

G-|------------------------------------------
D-|------------------------------------------
A-|-5-5-5-5--8-7-5-3-0-3-5-8-5-5-5-----------
E-|------------------------------------------


Comments