Nofx - Drop The World Chords & Tabs

 

Drop The World Chords & Tabs

Nofx Chords & Tabs

Version: 2 Type: Bass Tab 0 ratings
1 star 2 stars 3 stars 4 stars 5 stars
comments

Drop The World Bass Tab

Title: drop the world
band: NOFX
Album: Heavy Petting Zoo
tabbed by: Carlos Pino 

verse
G|------------------------------------------------------------------
D|------------------------------------------------------------------
A|-5-5-5-5-5-5-5-5-3-3-3-3-3-3-3-3-5-5-5-5-5-5-5-5-3-3-3-3-2-2-2-2--
E|------------------------------------------------------------------

G------------------------------------------------------------------
 D------------------------------------------------------------------
 A------------------------------------------------------------------ 
 E-7-7-7-7-7-7-7-7-5-5-5-5-5-5-5-5-3-3-3-3-3-3-3-3-5-5-5-5-3-3-3-3--
[ Tab from: http://www.guitartabs.cc/tabs/n/nofx/drop_the_world_btab_ver_2.html ]
G------------------------------------------------------------------------------|
 D------------------------------------------------------------------------------
 A-3-3-3-3-3-3-3-3-3-3-3-3-3-3-3-3-5-5-5-5-5-5-5-5-5-5-5-5-5-5-5-5--|
 E------------------------------------------------------------------------------------------
 
chorus
G-----------------------------------------------------------------------------------
D|----------------------------------------------------------------------------------
A|-------------5-5-5-5-3-3-3-3--5-5-5-5------------------------------------
E|-3-3-3-3------------------------------------3-3-3-3-3-3-3-3-5-5-5-5-5-5-5-5-

G-------------------------------------------------|-------------------
 D--------------------------------------------------------------------
A---------------------------------------------------------------------
 E--8--8--8--8--8--8--8--8-10-10-10-10-10-10-10-10-|


Comments