Nofx - Dinosaurs Will Die Chords & Tabs

 

Dinosaurs Will Die Chords & Tabs

Nofx Chords & Tabs

Version: 4 Type: Tab 0 ratings
1 star 2 stars 3 stars 4 stars 5 stars
comments

Dinosaurs Will Die Tab

----------------------------------------------------------------------------
			     Dinosaurs Will Die - NOFX
----------------------------------------------------------------------------

Tabbed by:Me


Tuning: EADGBe

h- hammer on
p - pull off
b - bend
r - release
pm - palm mute

Intro

e|-----6~~~~---------------------------------------------------------------|
B|-------------5~~~--------------------------------------------------------|
G|--------------------------9-8-7-6-5--------------------------------------|
D|--------------------------9-8-7-6-5--X 3---------------------------------|
A|--------------------------7-6-5-4-3--------------------------------------|
E|-------------------------------------------------------------------------|

Verse 1 

e|------------------------------|-----------|------------------------------|
B|------------------------------|-----------|------------------------------|
G|------------------------------|-9-8-7-6-5-|------------------------------|
D|---------------------7---X16--|-9-8-7-6-5-|---------------------7---X16--|
A|-2---X16---5---X16---5--------|-7-6-5-4-3-|-2---X16---5---X16---5--------|
E|-0---------3------------------|-----------|-0---------3------------------|
   pm..........................              pm...........................

e|------------------------------------||------------------------------|
B|------------------------------------||------------------------------|
G|------------------------------------||---9--------12--------7-------|
D|-------5----------5-----------------||---9---X8---12---X8---7---X8--|
A|-7--57---75-7-757---757-------------||---7--------10--------5-------|
E|------------------------------------||------------------------------|

e|--------------------------------||
B|--------------------------------||
G|-------------9--87--------------||
D|-------5-----------9--87--------||
A|-7--57---75---------------10----||
E|--------------------------------||

e|-------------------------------------------------------------------------|
B|-------------------------------------------------------------------------|
G|-9------12------7------5--------------------9-----7--5-------------------|
D|-9--X8--12--X8--7--X8--5--X8--2------7------9--X7-7--5--X8--2------7-----|
A|-7------10------5------3------2--x8--7--X8--7-----5--3------2--X8--7--X8-|
E|------------------------------0------5----------------------0------5-----|

e|------------------------------------|
B|------------------------------------|
G|------------------------------------|   (repeat verse 1)
D|-------5----------5-----------------|
A|-7--57---75-7-757---757-------------|
E|------------------------------------|


Solo (with wah wah)

e|-------------------------------------------------------------------------|
B|-------------------------------------------------------------------------|
G|-/9--9-9-7-7-9-7-9-7-9-7-9-9-7-7-9-7-9-9-7-7-9-7-9-7-9-7-9-7-9-7-9-9-7-7-|
D|-/9----------------------------------------------------------------------|
A|-/7----------------------------------------------------------------------|
E|-------------------------------------------------------------------------|
[ Tab from: http://www.guitartabs.cc/tabs/n/nofx/dinosaurs_will_die_tab_ver_4.html ]
e|-------------------------------------------------------------------------|
B|-7br7-----7br7-----------------------------------------------------------|
G|-----9-9-------9-9-9-9-9-4-----4-4-4-5-4---2----0----0---5---4---16-14---|
D|---------------------------2-2-------------------------------------------|
A|-------------------------------------------------------------------------|
E|-------------------------------------------------------------------------|

                                                     b*full bends 
e|-------------------------------------------------------------------------|
B|---------------------------------------------------15b*-15b*-15b*-15br---|
G|-14b14-14-14b14-14-14b-14-14b-14-14b-14-14-14b-14------------------------|
D|-------------------------------------------------------------------------|
A|-------------------------------------------------------------------------|
E|-------------------------------------------------------------------------|

e|-------------|-----------------------------------------------------------|
B|-------------|-----------------------------------------------------------|
G|-16--12--9---|--------------------------9-8------------------------------|
D|-------------|------------------7-------9-8-7-7-7------------------7-----|
A|-------------|--2--X16--5--X16--5--X16--7-6-7-7-7--2--X16--5--X16--5--X16|
E|-------------|--0-------3-------------------5-5-4--0-------3-------------|
               pm.......................             .......................

e|------------------------------||------------------------------|
B|------------------------------||------------------------------|
G|------------------------------||---9--------12--------7-------|
D|-------5----------5-----------||---9---X8---12---X8---7---X8--|
A|-7--57---75-7-757---757-------||---7--------10--------5-------|
E|------------------------------||------------------------------|

                            


e|--------------------------------|----------------------------------------|
B|--------------------------------|----------------------------------------|
G|--------------------------------|---9--------12--------7--------9--------|
D|-------5----------5-------------|---9---X8---12---X8---7---X8---9---X8---|
A|-7--57---75-7-757---757---------|---7--------10--------5--------7--------|
E|--------------------------------|----------------------------------------|

e|-------------------------------------------------------------------------|
B|-------------------------------------------------------------------------|
G|-5------5---------7-9-7-9-7-9-7-9-7-9-7-9--9------5------5---------------|
D|-5--X8--5--X8---------------7--------------9--X8--5--x8--5--X8-----------|
A|-3------3----------------------------------7------3------3---------------|
E|-------------------------------------------------------------------------|

e|-------------------------------------------------------------------------|
B|-------------------------------------------------------------------------|
G|-7-9-7-9-7-9-7-9-7-9-7-9--9-------5------5------7~-----------------------|
D|-----------7--------------9--X8---5--X8--5--X8--7~--random bass----------|
A|--------------------------7-------3------3------5~-----------------------|
E|-------------------------------------------------------------------------|

end with...
e|-------------------------------------------------------------------------|
B|-------------------------------------------------------------------------|
G|-------------------------------------------------------------------------|
D|-5--5--------------------------------------------------------------------|
A|-5--5--------------------------------------------------------------------|
E|-3--3--------------------------------------------------------------------|

 

Wrong?
So? Sue me


"I'm never wrong...merely temporarily incorrect"
Comments