Nofx - Dinosaurs Will Die Chords & Tabs

 

Dinosaurs Will Die Chords & Tabs

Nofx Chords & Tabs

Version: 2 Type: Bass Tab 0 ratings
1 star 2 stars 3 stars 4 stars 5 stars
comments

Dinosaurs Will Die Bass Tab

   
Artist:NOFX	
Album:Pump up the Valuum
Song:Dinosaurs will die
Tabbed by Pier-Olivier Fradette
nickinuse@hotmail.com
member of the Bass Tab Army

This is a real kick-ass song(like most of NOFX songs).Play it quite fast.Not much 
hard except that riff at the end of the song.

Tab explanation    >=play till it changes     %=pause      /=slide up     
\=slide down    * *=palm muted     #=let ring

INTRO
G--------------------------------------------------------------------------
D--------------------------------------------------------------------------
A*777777777777777777777777777777777777777777777777777777777777777777777777*
E--------------------------------------------------------------------------
Bridge
G--------------------------------------------------------------------------
D--------------------------------9-8-7-6-5--------------------------------
A--7-6-5-4-3--%--7-6-5-4-3--%--7-6-5-4-3--------------------------------
E--------------------------------------------------------------------------

Verse
G--------------------------------------------------------------------------
D--------------------------------------------------------------------------
A-%>------------------------------------------------------7-6-5-4-3----------
E--------------------------------------------------------------------------

G-----------------------------------------------------------------------------
D--------------------------------------------------------5-7-5--------5-7-5---
A-%>-----------------------------------------------7--5-7-----5-7--5-7-----5-7
E-----------------------------------------------------------------------------

G----------------------------------------------------------------------------
D----------------------------------------------------------------------------
A-7777777777777777777777777777777777777777777---------------------------------
E--------------------------------------------88888888888888888888888888888888

G-----------------------------------------------9--9-7----------------------
D--------------------------------------------5-5------9-7-------------------
A-555555555555555555555555555555555555-7--5-7-7-----------10-7--------------
E---------------------------------------------------------------------------

G--------------------------------------------------------------------------
D--------------------------------------------------------------------------
A-777777777777777777777777777777-------------------------------------------
E--------------------------------888888888888888888888888888888888888------

G--------------------------------------------------------------------------
D--------------------------------------------------------------------------
A-5555555555555555555>-------33333333333333333333>---------2222222222222222
E--------------------------------------------------------------------------

G--------------------------------------------------------------------------
D--------------------------------------------------------------------------
A-00000000000000000000-7777777777777777777-5-33333333333333333333------
E--------------------------------------------------------------------------

G--------------------------------------------------------------------------
D--------------------------------------------------------------------------
A-2222222222222222222222222222222222-0000000000000000000000000000000-------
E--------------------------------------------------------------------------

G--------------------------------------------------------------------------
D--------------------------------------------------------------------------
A-%%%%%%%%%%%%%%%%%%%%%%%%%%%%%%%%%%%%----------------7-6-5-4-3------------
E--------------------------------------------------------------------------

G-----------------------------------------------------------------------------
D------------------------------------------------------5-7-5---------5-7-5---
A%%%%%%%%%%%%%%%%%%%%%%%%%%%%%%%%%%%%------------7--5-7------5-7--5-7-----5--
E-----------------------------------------------------------------------------
[ Tab from: http://www.guitartabs.cc/tabs/n/nofx/dinosaurs_will_die_btab_ver_2.html ]
G--------------------------------------------------------------------------
D--------------------------------------------------------------------------
A-77777777777777777777777777777777777777-1010101010101010101010101010101010
E--------------------------------------------------------------------------

G------------------------------------------------------9--9-7----------------
D---------------------------------------------------5-5------9-7-------------
A-5555555555555555555555555555555555----------7--5-7-7-----------10-----------
E--------------------------------------------------------------------------

G--------------------------------------------------------------------------
D--------------------------------------------------------------------------
A-777777777777777777777777777777777-33333333333333333333333333-------------
E--------------------------------------------------------------------------

G--------------------------------------------------------------------------
D--------------------------------------------------------------------------
A-----------------------------------22222222222222222222222222-77777777777>
E-333333333333333333333333333333333----------------------------------------

G--------------------------------------------------------------------------
D--------------------------------------------------------------------------
A-000000000000000000000000-777777777777777777-5-33333333333333333-22222>
E--------------------------------------------------------------------------

G--------------------------------------------------------------------------
D--------------------------------------------------------------------------
A-000000000000000000000000000----------------------------------------------
E--------------------------------------------------------------------------
GUITAR SOLO
G--------------------------------------------------------------------------
D--------------------------------------------------------------------------
A-77777>-33333>-------222222>-33333>--------00000>-33333>---------------
E---------------33333>----------------33333>------------------------------

G--------------------------------------------------------------------------
D--------------------------------------------------------------------------
A-%%%%%%%%%%%%%%%%%%%%%%%%%%%%%%%%%%%%%%-------------------7-6-2-2-0-------
E--------------------------------------------------------------------------

G--------------------------------------------------------------------------
D----------------------------------------------------5-7-5--------5-7-5---
A-%%%%%%%%%%%%%%%%%%%%%%%%%%%%%%%%%%-----------7--5-7-----5-7--5-7-----5--
E--------------------------------------------------------------------------

G---------------------------------------------------------------------------
D---------------------------------------------------------------------------
A-7777777777777777777777777777777-10101010101010101010101010101010101010----
E---------------------------------------------------------------------------

G----------------------------------------------------------------------
D----------------------------------5------------5----------------------
A-555555555555555555555555-7--7-5-7-7-5-7--7-5-7-7-5-------------------
E----------------------------------------------------------------------

G--------------------------------------------------------------------------
D--------------------------------------------------------------------------
A-7777777777777777777777777777777-1010101010101010101010101010-55555555555
E--------------------------------------------------------------------------

G----------------------------------------------------------------------------
D----------------------------------------------------------------------------
A-7777777777777777777777-3333333333333333333333333333333/1010-9-10-9>
E----------------------------------------------------------------------------

So this is what we can call a real good song!!!
The short fill are quite hard to play it is possible cuz I did it!
Any comments:nickinuse@hotmail.com
Comments