Nofx - Dig Chords & Tabs

 

Dig Chords & Tabs

Nofx Chords & Tabs

Version: 2 Type: Bass Tab 0 ratings
1 star 2 stars 3 stars 4 stars 5 stars
comments

Dig Bass Tab

   
---------------- DIG / NOFX ---------------- 

INTRO:
G:-------------------------------------------------------------
D:-------------------------------------------------------------
A:-3-3-3-3-2-2-4-4-4-4-5-5-3-3-3-3-2-2-4-4-4-4-5-5-3-3-3-3-
E:------------------------------------------------------------ 

G:-------------------------------
D:------------------------------- 
A:2-2-4-4-4-4-5-5-3-3-3-3-2-2- 
E:-------------------------------

VERSE: 
G:----------------------------------------------------------------------------
D:----------------------------------------------------------------------------
A:------------------3-3-3-3-3-3-3-3------------------8--8--8--8--8--8--8--8-
E:-5-5-5-5-5-5-5-5------------------3-3-3-3-3-3-3-3------------------------- 

PRE CHORUS:
G:---------------------------------------------------------------------
D:---------------------------------------------------------------------
A:-8-7-5--3-3-3-3-3-3-3-3-----------------------3-0-3-3-3-3-3-10-10-
E:--------------------------3-5--1-1-1-1-1--3-5-----------------------
[ Tab from: http://www.guitartabs.cc/tabs/n/nofx/dig_btab_ver_2.html ]
G:--------------------------------------------------------------------
D:--------------------------------------------------------------------
A:-------3-0-5-5-5-5-3-3-3-3-7-7-7-7-7-7-7-7-----------------------
E:-3-5------------------------------------------3-5--1-1-1-1-1--3-5-

G:---------------------------------------------------------------
D:---------------------------------------------------------------
A:--3-3-3-3-3-10-10-------3-0-5-5-5-5-3-3-3-3-7-------3-0-3-3- 
E:--------------------3-5--------------------------3-5---------- 

CHORUS:
G:-------------------------------------------------------------------------
D:-------------------------------------------------------------------------
A:-7-7-7-7-5-5-5-5--------10-10-10-10---------3-3-3-3----------8--8-7-5-
E:------------------5-5-5-5-------------1-1-1-1---------3-3-3-3-----------

G:----------------------------------------------------------------------------
D:----------------------------------------------------------------------------
A:-3-3-3-3------------------10-10-10-10--------3-3-3-3----------8--8-7-5-3-
E:----------3-3-3-3-5-5-5-5-------------1-1-1-1---------3-3-3-3-------------

G:------------------------------------- 
D:-------------------------------------
A:---------3-3-3-3-------------------- 
E:-5-5-5-5----------3-3-3-3-0-0-0-0-- 

SKA PART:
G:---------------------------------------------------------------
D:--------------------------------------------------------------- 
A:-3-3-3----------------------3-3-3--3-3-3---------------------
E:--------3-3-3-5-5-5--5-5-5----------------3-3-3-1-1-1-1-1-1- 
Comments