Nofx - Desperations Gone Chords & Tabs

 

Desperations Gone Chords & Tabs

Nofx Chords & Tabs

Version: 1 Type: Tab 0 ratings
1 star 2 stars 3 stars 4 stars 5 stars
comments

Desperations Gone Tab

   
THE DESPERATION'S GONE by NOFX. Album : So long and thanks for all the shoes
(1997)
Real beauty. Best song on this album.
A=Melvin   B=El Hefe   A&B=both    
:
# intro #B
E---------------------------------------------------|
B---------------------------------------------------|
G---------------------------------------------------|
D---7---5---5---6---7---5---5---6---7---5---5---3---|
A---------------------------------------------------|
E---------------------------------------------------|
:
# verse #A   *=play 12X  #=play 6X   &=play 3X                       >
E-------------------------------------------------------------------->
B--------------------*----------------*---------------#---#---------->
G----*-------*-----12---------*-----10--------*-----10--12---&----#-->
D---7------10------12-------12------10------10------10--12--10-&-7--->
A---7------10------10-------12-------8------10-------8--10--10-5-7--->
E---5-------8---------------10---------------8---------------8-7-5--->
# verse #B   *=play 12X  #=play 6X                                   >
E-------------------------------------------------------------------->
B--------------------*--------------------------------#---#---------->
G----*-------*-----12-------------------------------10--12----------->
D---7------10------12---------*-------*-------*-----10--12----#---#-->
A---7------10------10--------8------11------10-------8--10--10--12--->
E---5-------8-------------------------------------------------------->
>verseA
>-----------------------|
>----*-------*-------#--|
>--10------10------10---|
>--10------10------10---|
>---8-------8-------8---|
>-----------------------|
>verseB
>-----------------------|
>-----------------------|
>----*-------*-------#--|
>---3-------3-------6---|
>---3-------3-----------|
>---1-------1-----------|
:
# chorus #AX2   *=play 12X                               # end-chord #A
E---------------|                                        E-------|
B------------*--|                                        B-------|
G----*-----10---|                                        G-------|
D--10------10---|                                        D--10---|
A--10-------8---|                                        A--10---|
E---8-----------|                                        E---8---|           
# chorus #BX2   *=play 12X                               # end-chord #B
E---------------|                                        E-------|
B----*----------|                                        B-------|
G---5--------*--|   > Then play AverseA or BverseB and   G-------|
D---5-------3---|     AchorusAX4 or BchorusBX4.          D-------|
A---3-------3---|                                        A---3---|
E-----------1---|                                        E---3---|
:
Adrenaline addicted!
Tabbed by Jussi Heinonen 26.09.1998.

[ Tab from: http://www.guitartabs.cc/tabs/n/nofx/desperations_gone_tab.html ]
Comments