Nofx - Desperations Gone Chords & Tabs

 

Desperations Gone Chords & Tabs

Nofx Chords & Tabs

Version: 1 Type: Bass Tab 0 ratings
1 star 2 stars 3 stars 4 stars 5 stars
comments

Desperations Gone Bass Tab

   
This is an awesome song to play on the bass.
standard tuning

Intro
G---------------------------------------------------------------
D-----10----10----10----9-----7-----5-----5-----5-----3-----2---
A---0-----0-----0-----0-----0-----3-----3-----3-----3-----3-----
E---------------------------------------------------------------
intro continued
G
D------5------5-----5------3------2-----1-----1-----1-----2----4-
A----------------------------------------------------------------
E---3------3-----3------3------3-----0-----0-----0-----0-----0---
[ Tab from: http://www.guitartabs.cc/tabs/n/nofx/desperations_gone_btab.html ]
*=play 20x  #=play 10x  &=play 5x
verse
G----------------------------------------------------------------
D-------------------5*------------3*----------3#---5#------------
A---0*-------3*-------------5*-----------3*------------3&-2&-0#--
E----------------------------------------------------------------

chorus
G---5*-----5------------5-5*-----5-----
D---------7-75-3*-----57-7------7-75-3*
A--------------------------------------
E--------------------------------------

play verse again

chorus2
G---5*-----5--------5-5*-----5---------5-5#--------5-----------------
D---------7-75-3*-57-7------7-75-3*--57-7--------77-757-3#--3---3-35-
A------------------------------------------------------------303-3---
E--------------------------------------------------------------------

tabbed by ryan d.
thats it have fun!!!!!
Comments