Nofx - Decline Chords & Tabs

 

Decline Chords & Tabs

Nofx Chords & Tabs

Version: 1 Type: Bass Tab 0 ratings
1 star 2 stars 3 stars 4 stars 5 stars
comments

Decline Bass Tab

NOFX- THE DECLINE BASS TABS VERSION 1.O
TABBED BY WILLIAM CAWLEY
IF YOU HAVE ANY COMMENTS OR QUESTIONS, MY E-MAIL ADRESS IS
IMUSMAKEDABORDER@AOL.COM

NOTE: I TABBED THE DECLING BECAUSE THE ONLY OTHER TAB 
I FOUND ON THE NET WAS SO BAD THAT IT WAS SCARY. SO IF YOU WANT TO 
LEARN THE DECLINE, THEN THIS IS THO ONLY PLACE TO GO.
I WONT WRITE THE EXACT NUMBER OF TIME THAT YOU PLAY EACH
NOTE, BUT IF YOU LISTEN TO THE SONG, YOU SHOULD BE ABLE TO FIGURE IT
OUT. BELOW THE TABS ARE LYRICS TO HELP YOU TO KEEP PLACE.
PLEASE ASK PERMISSION BEFORE COPYING.

G--------------------------------------------------------------------
D-------33------55------5------------------------5-------------------
A-----------33------5/0---0-3-5-3-(X3)-3-5-3-5-0---0-3-5-3-(X2)-33333
E---55---------------------------------------------------------------
                                               
G--------------------------------------------------------------------
D---------5------------------------5---------------------------------
A-22232-0---0-3-5-3-(X3)-3-5-3-5-O---0-3-5-3-(X2)-33-22-5------------
E--------------------------------------------------------------------
  ROCK MAN
G--------------------------------------------------------------------
D-------------------------------------------3-3-3-3---------5-5-5-5--
A---12-12-12-12-10-10-10-10-5-5-5-5-----------------3-3-3-3----------
E-----------------------------------5-5-5-5--------------------------
     WHERE ARE ALL...
G--------------------------------------------------------------------
D---------------------------5-3-1-3----------------------------------
A---3-3-3-3-3-3-3-3-2-2-2-2---------2-1-1-1-1-1-1-1-1----------------
E-----------------------------------------------------5-5-5-5-5-5-5-5
     BRED ON...
G--------------------------------------------------------------------
D--------------------------------------------------------------------
A--------------------------------------------------------------------
E---1-1-1-1-1-1-1-1--5-5-5-5-5-5-5-5-5-5-5-5-5-5-5-5-5-5-5-5-5-5-5-5-
    ZERO FEELINGS
G--------------------------------------------------------------------
D---3-3-3-3-3-3-3-3-----------------3-3-3-3-3-3-3-3------------------
A---------------------------------------------------3-3-3-3-3-3-3-3--
E-------------------5-5-5-5-5-5-5-5----------------------------------
    BLAME IT ON
G--------------------------------------------------------------------
D---3-3-3-3-3-3-3-3-----------------5-5-5-5-5-5-5-5------------------
A-------------------3-3-3-3-3-3-3-3-----------------1-1-1-1-1-1-1-1--
E--------------------------------------------------------------------
    BLAME IT ON THE GREEDIOCRACY...
G--------------------------------------------------------------------
D---3-3-3-3-3-3-3-3--------------------------------------------------
A-------------------3-3-3-3-3-3-3-3-3-----------------3-3-3-3-3-3-3-3
E-------------------------------------1-1-1-1-4-4-4-4----------------
    FEAR OF TRUTH     ADD THE...
G--------------------------------------------------------------------
D-------------------------------5--5--5--5--------------3--3--3--3---
A-------------------3--3--3--3---------------------------------------
E---1-1-1-1-4-4-4-4-------------------------5--5--5--5---------------
    MEMORIZE AND...        AREN'T EVER ASKED...
G--------------------------------------------------------------------
D---------------5--5--5--5-------------------------------------------
A---3--3--3--3-------------------------------------------------------
E--------------------------1-1-1-1-1-1-1-1---0-0-0-0-3-3-3-3-1X1X1X1X
         WE'RE LIVING IN...
G--------------------------------------------------------------------
D---5-5-5-5---------------------------5-5-5-5------------------------
A--------------------------------------------------------------------
E-----------1X1X1X1X-3-3-3-3-1X1X1X1X---------1X1X1X1X-5-5-5-5-------
                                                        FATHER...
G--------------------------------------------------------------------
D---5-5-5-5-----------3-3-----5-5---------3-3-3-3---------3-3-3-3----
A-----------5-5-3-3-2-----3-3-----5-5-------------3-3-3-3---------3-3
E-------------------------------------5-5----------------------------
    WHAT HAVE...
G--------------------------------------------------------------------
D-------3-3-3-3---------------------------------6-5-4-3-2------------
A---0-0--------------------------------------------------------------
E---------------5-5-5-5-1-1-1-1-3-3-3-3-5-5-5-5-----------5-5-5-5----
                 DOWN BY THE...
G--------------------------------------------------------------------
D---3-3-3-3-5-5-5-5--------------------------------------------------
A--------------------------------------------------------------------
E-------------------5-5-5-5----------------------------------------------
    UNDER STONE...
G-------------5-5-5-5-------------------------5-5-5-5----------------
D-----3-3-3-3---------3-3-3-3-5-3-2-3--------------------------------
A-------------------------------------3-3-3-3---------3-3-3-3--------
E--------------------------------------------------------------------
      BROTHER WHERE...
G-----------------------------------------------------5-5-5-5--------
D---------2-3-3-3-3-3-5-3-----3-3-3-3-5-3---3------------------------
A---5-3-5-----------------5-5-------------5---3-3-3-3---------3-3-3-3
E--------------------------------------------------------------------
     THEY TOLD ME...
G---------------------7H9-7H9-7H9-7H9-6H8-6H8-6H8-6H8-5H7-5H7-5H7-5H7
D---------2-5---5---5-------------------(x4)-------------------------
A---5-3-5-----5---5--------------------------------------------------
E--------------------------------------------------------------------
                       THE CHRISTIANS...
G---9H11-9H11-9H11-9H11-8H10-8H10-8H10-8H10-7H9-7H9-7H9-7H9----------
D-----------------------------------------------------------7---7---7
A-------------------------------------------------------------7---7--
E-----------------------(x2)-----------------------------------------
   THE STORYBOOK...
G--------------------------------------------------------------------
D---------16-18-16----16H18----16-18-16----16H18 16-18-16------------
A---19-19----------19-------19----------19----------------19---------
E--------------------------------------------------------------------

G--------------------------------------------------------------------
D---19-19-18-16----19-19-18-16-------16-18-16------------------------
A---------------19-------------19-19----------19-16----19-16----16-19
E---------------------------------------------------19-------19------

G--------------------------------------------------------------------
D---------16----------18-18-18-18-19-19-19-19-21-21-21-21------------
A---16-19----19-16-19-------------------------------------19---------
E--------------------------------------------------------------------

G--------------------------------------------------------------------
D--------------------------------------------------------------------
A-------------------2-2-2-2-0-0-0-0---------4-4-4-4-2-2-2-2-0-0-0-0--
E---0-0-0-0-0-0-0-0-----------------0-0-0-0--------------------------

G---NO-BASS-DURING---------------------------------------------------
D---"JERRY-SPENT-------2-2-2-2---------------------------2--0---2----
A---SOME TIME------------------4-4-4-4-0-0-0-0-2-2-2-2---------4--2--
E---IN MICHIGAN"-----------------------------------------------------
                       A 20 YEAR...                      A DIME IS...
G--------------------------------------------------------------------
D-----------------------------------------REPEAT-THIS-AND------------
A-----------------------------------------THE-PREVIOS-2--------------
E---5-5-5-5-0-0-0-0-5-5-5-5-2-2-2-2-------ONCE-MORE------------------
    A DIME IN CALIFORNIA...
G--------------------------------------------------------------------
D--------------------------------------------------------------------
A-------------------5-5-5-5-5-5-5-5-4-4-4-4-4-4-4-4-0-0-0-0-0-0-0-0--
E---1-1-1-1-1-1-1-1------------------------------------------------1-
    DONT THINK...
G--------------------------------------------------------------------
D--------------3-----------------3-------------------------3---------
A---GUITAR-3-1---1-3---1/7---3-1---1-3-----------------3-1---1-3-----
E--------------------------------------0-0-0-0-0-0-0-0---------------
[ Tab from: http://www.guitartabs.cc/tabs/n/nofx/decline_btab.html ]
G--------------------------------------------------------------------
D-----------------------3--------------------------------------------
A-------------------3-1----------------------------------------------
E---0-0-0-0-0-0-0-0---------0-----12-----0-----12--------------------
                            I WISH...    AMERICA'S FOR...
G---BASS-KICKS-------------------------------------------------------
D---IN-RIGHT---------------------------------------------------------
A---AFTER----------------------------3-3-3-3-0-0-0-0-----------------
E---"ASSUMPTION"---0-0-0-0---0-0-0-0-----------------0-0-0-0---------
                             THAT A MILLION...
G--------------------------------------------------------------------
D--------------------------------------------------------------------
A-------------------3-3-3-3-3-3-3-3-5-5-5-5-5-5-5-5------------------
E---0-0-0-0-0-0-0-0---------------------------------3-3-3-3-1-1-1-1--
    TRUMPET
G--------------------------------------------------------------------
D---3-3-5-5-7-7-8-8-----------------1-1-3-3-5-5-6-6------------------
A-------------------1-1-3-3-5-5-3-3-----------------0-0-1-1-3-3-1-1--
E--------------------------------------------------------------------
    TRUMPET REPEATS
G--------------------------------------------------------------------
D--------------------------------------------------------------------
A-----------3-3-----5-5-------------------3-3-----5-5----------------
E---1-1---------------------1-1---1-1---------------------1-1---1-1--

G---BASS-OVERDRIVE-PEDAL---------------------------------------------
D---BASS-DURING-THIS-PART-------------------------------------5-5-5-2
A---SLIGHTLY-OFF-TEMPO----2-2-2-2-2-2-3-3-3-3-3-3-3-3-5-5-5-5--------
E---WITH-THE-GUITAR---------------------------------------------(x2)-

G--------------------------------------------------------------------
D---2-2-2-2-2-2-2-2---------------------------------5-5-5-5-5-5-5-5--
A-------------------2-2-2-2-2-2-2-2-3-3-3-3-3-3-3-3------------------
E--------------------------------------------------------------------
    SERATONIN'S GONE...
G--------------------------------------------------------------------
D-----------------------3-5-6-5-3-5-----------------5-3-2-0-5-5-3-2-7
A---7-7-7-7-5-5-5-5-3-3-------------3-3-3-3-5-5-5-5------------------
E----------------------------------PLAY-THIS-ONLY-TWICE--------------
    SARA FLED THE...                 SHE LEFT HER...
G--------------------------------------------------------------------
D-------------------------------------------------------------1-1-1--
A---0-0-0-0-3-3-3-3-----------------0-0-0-0-3-3-3-3------------------
E-------------------3-3-3-3-0-0-0-0-----------------3-3-3-3-3--------
    TEN THOUSAND MESSAGES...
G--------------------------------------------------------------------
D--------------------------------------------------------------------
A---0-0-0-0-3-3-3-3-----------------0-0-0-0-3-3-3-3------------------
E-------------------3-3-3-3-0-0-0-0-----------------3-3-3-3-3-3-3-3--
    TEN THOUSAND VOICES...
G--------------------------------------------------------------------
D--------------------------------------------------------------------
A--------------------------------------------------------------------
E---1-1-0-0-0-0-0-0-12-12-12-12-12-12-12-12--------------------------
    NOW THAT SERATONIN'S GONE...
G-------------------------------------------------------3---------3--
D-------------------------------------------------3-3-5---5-3-3-5---5
A---3-3-3-1-0-0-0---------------3-3-3-1-0-0-0------------------------
E-----------------3-0-----0-------------------3-0--------------------

G--------------------------------------------------------------------
D--------------------------------------------------------------------
A---3-3-3-1-0-0-0-----------1---------1---3-3-3-1-0-0-0--------------
E-----------------3-0-1-1-3---3-1-1-3---3---------------3-0----------

G------------15-------------15---------------------------------------
D---15-15-17----17-15-15-17----17------------------------------------
A---------------------------------3-3-3-1-0-0-0-----1/7--------------
E-----------------------------------------------3-0------------------

G---5---4---3---2----------------------------------------------------
D---5---4---3---2-----------5-5-5-5----------------------------------
A---3---2---1---0---3-3-3-3---------5-5-5-5--------------------------
E-------------------------------------------5-5-5-5------------------
    THE MAN WHO USED TO SPEAK...
G---5---4---3---2----------------------------------------------------
D---5---4---3---2---------5/7-5-5-5-5--------------------------------
A---3---2---1---0---3-3-3-------------5-5-5-5/7----------------------
E-----------------------------------------------5-5-5-5--------------
    THE TELEVISIONS...
G--------------------------------------------------------------------
D-------------------2-2-2-2-2-2-2-2----------------------------------
A---3-3-3-3-3-3-3-3-----------------3-3-3-3-3-3-3-3------------------
E---------------------------------------------------0-0-0-0-0-0-0-0--
    IT DOESN'T MAKE YOU CARE
G--------------------------------------------------------------------
D--------------------------------------------------------------------
A---3-3-3-3-3-3-3-3--------------------------------------------------
E-------------------0-0-0-0-0-0-0-0----------------------------------
    THEY'RE BETTING...
G--------------------------------------------------------------------
D--------------------------------------------------------------------
A---3-3-3-3-3-3-3-3-----------------3-3-3-3-0-0-0-0------------------
E-------------------0-0-0-0-0-0-0-0-----------------3-3-3-3-3-3-3-3--
    GUITAR SOLO
G--------------------------------------------------------------------
D--------------------------------------------------------------------
A---3-3-3-3-5-5-5-5-----------------3-3-3-3-0-0-0-0------------------
E-------------------5-5-5-5-0-O-O-O-----------------0----------------

G-----------------------------------------3-1------------------------
D-------1-----3-------------1-----3-----------3----------------------
A---1-3---1-3---1-3-----1-3---1-3---1-3-1--------(x6)----------------
E-------------------1-1----------------------------------------------
    BASS SOLO (THIS PART TAKES PRACTICE)
G--------------------------------------------------------------------
D-------2-2-0-0-2-2-----2-2-0-0-0-0-----2-2-0-0-2-2-----2-2-0-0------
A---3-3-------------3-3-------------3-3-------------3-3--------------
E--------------------------------------------------------------------
    PLACE A WAGER...
G--------------------------------------------------------------------
D-------------------2-2-2-2-2-2-2-5-5-5-5-5-5-5-5--------------------
A---3-3-3-3-3-3-3-3-------------------------------5-5-5-5-5-5-5-5----
E------------------------------------------------------------(x2)----
    WE ARE THE WHORE              INTELECTUALLY SPAYED
G--------------------------------------------------------------------
D--------------------------------------------------------------------
A-------------------3-3-3-3-3-3-3-3-5-5-5-5-5-5-5-5------------------
E---0-0-0-0-0-0-0-0---------------------------------3-3-3-3-1-1-1-1--
    TRUMPET
G--------------------------------------------------------------------
D---3-3-5-5-7-7-8-8-----------------1-1-3-3-5-5-6-6------------------
A-------------------1-1-3-3-5-5-3-3-----------------0-0-1-1-3-3-1-1--
E-------------------------------------------------------------------0
    TRUMPET REPEATS
G--------------------------------------------------------------------
D--------------------------------------------------------------------
A--------------------------------------------------------------------
E---0---5---0---5---0---5---0---5---0---9-7-5-0---5---0---5----------
                    ONE MORE PILL...
G--------------------------------------------------------------------
D--------------------------------------------------------------------
A---------------------------------------------------2-2-2---5-5-5----
E---0---5---0---5---0---5---0---9-7-5-5-5---0-0-0--------------------
    ONE MORE PRAYER...    
G--------------------------------------------------------------------
D--------------------------------------------------------------------
A-------------------2-2-2-2-5-5-5-5---------9-9-9-9-5-5-5-5-7-7-7-7--
E---5-5-5-5-0-0-0-0-----------------5-5-5-5--------------------------
    LOSS OF BATTLE...               NA NA NA NA NA
G--------------------------------------------------------------------
D--------------------------------------------------------------------
A-----------9-9-9-9-5-5-5-5-7-7-7-7----------------------------------
E---5-5-5-5----------------------------------------------------------
    WHEN THE GOING GETS TOUGH...
G--------------------------------------------------------------------
D-----------3-3-3-3--------------------------------------------------
A-------------------3-3-3-3------------------------------------------
E---5-5-5-5-----------------0-0-0-0---(x4)---------------------------

G--------------------------------------------------------------------
D-----------3-3-3-3--------------------------------------------------
A-------------------3-3-3-3-----------------3-3-3-3-5-5-5-5----------
E---5-5-5-5-----------------0-0-0-0-5-5-5-5-----------------0-0-0-0--
    AND SO WE GO...
G--------------------------------------------------------------------
D---------------------------3-3-3-3---------------------5-5----------
A-----------------------------------5-5-5-5---------3-3--------------
E---3-3-3-3-0-0-0-0-5-5-5-5-----------------1-1-1-1---------5-5------
    ADMIT DEFEAT...
G--------------------------------------------------------------------
D-----------5-5-5-5--------------------------------------------------
A---3-3-3-3---------3-3-2-2-0----------------------------------------
E--------------------------------------------------------------------
    FELLOW MEMBERS...
G----------REPEAT-UNTIL-THE-NOTES-SHIFT-UP---------------------------
D--------------------------------------------------------------------
A-------------------3-3-3-3-3-3-3-3-5-5-5-5-5-5-5-5------------------
E---0-0-0-0-0-0-0-0---------------------------------3-3-3-3-1-1-1-1--
    TRUMPET
G----------REPEAT-UNTIL-MUSIC-DROWNS-OUT-----------------------------
D--------------------------------------------------------------------
A-------------------5-5-5-5-5-5-5-5-7-7-7-7-7-7-7-7------------------
E---2-2-2-2-2-2-2-2---------------------------------5-5-5-5-3-3-3-3--
    OUTRO SHIFTS
Comments