Nofx - Day To Daze Chords & Tabs

 

Day To Daze Chords & Tabs

Nofx Chords & Tabs

Version: 2 Type: Bass Tab 0 ratings
1 star 2 stars 3 stars 4 stars 5 stars
comments

Day To Daze Bass Tab

Song: Day to daze
Band: NoFX
Album: S&m airlines
tabbed by: Carlos Pino
 
   intro                                                a lot of times
G:---------------------------------------------------------------
D:---------------------------------------------------------------
A:---------------3-----------------------------------------------
E:-5-3-0-3-5--------------------------------------------------

    verse
G:---------------------------------------------------------------
D:---------------------------------------------------------------
A:----------------------------------------------3-3-3-3-3-3-3-3
E:-5-5-5-5-5-5-5-5--1-1-1-1-1-1-1-1-----------------------3-3-3-3-3-3-3-3
[ Tab from: http://www.guitartabs.cc/tabs/n/nofx/day_to_daze_btab_ver_2.html ]
G:---------------------------------------------------------------
D:---------------------------------------------------------------
A:-3-3-3-3-3-3-3-3-----------------------------------------
E:-----------------------5-5-5-5-5-5-5-5-1-1-1-1-1-1-1-1-3-3-3-3-3-3-3-3

    chorus
G:---------------------------------------------------------------
D:---------------------------------------------------------------
A:-3-3-0--0-0-0----------------------------------------------
E:-------------------3-3-1--1-1-1----------------------------

   bridge
G:---------------------------------------------------------------
D:---------------------------------------------------------------
A:-------------------------3-------------------------------------
E:-5-5-5-5-5--3h5-5----5-5--5-5-5-5-5-3h5-5--------


Comments