Nofx - Dads Bad News Chords & Tabs

 

Dads Bad News Chords & Tabs

Nofx Chords & Tabs

Version: 1 Type: Bass Tab 0 ratings
1 star 2 stars 3 stars 4 stars 5 stars
comments

Dads Bad News Bass Tab

Song: Dad's Bad News
Band: NOFX
Album: So Long And Thanks For All The Shoes
tabbed by: Olya: olly_r@hotmail.com, icq: 20316789

*=play about 8 times

Intro

G:---------------------------------------------------------------
D:-1----------------1-1-1-1-1-------------------1-1-1-1-1--------
A:---4-2----------------------2-2-2-----------------------2-2-2--
E:-------4*--0*--2*-----------------4*--0*--2*-------------------


G:---------------------------------------------------------------
D:------------1-1-1-1-1------------------------------------------
A:----------------------2-2-2-2----------------------------------
E:-4*--0*--2*----------------------------------------------------

verses 1 & 2

G:---------------------------------------------------------------
D:---------------------------------------------------------------
A:---------------------------------------------------------------
E:-4*-----------------------------0*-----------------------------

G:---------------------------------------------------------------
D:---------------------------------------------------------------
A:-4*------------------------------------------------------------
E:-----------------------0000-----2222-(4 at end of 2nd and 4th verses)

Chorus

G:---------------------------------------------------------------
D:-----------------4**-------------------------------------------
A:----2**--------------------------------------------------------
E:----------------------0---0-0-0---0-----0----2--2---2---4------

Bridge

G:---------------------------------------------------------------
D:---------------------------------------------------------------
A:------------------------------4*-------------------------------
E:-4*----------2*------------------------------------------------
[ Tab from: http://www.guitartabs.cc/tabs/n/nofx/dads_bad_news_btab.html ]
G:---------------------------------------------------------------
D:---------------------------------------------------------------
A:-----------------2*---------------2*---------------------------
E:---------------------------------------------------------------

G:---------------------------------------------------------------
D:---------------------------------------------------------------
A:-2*---------------1*-------------------------------------------
E:----------------------------------------4*---------------------

G:---------------------------------------------------------------
D:---------------------------------------------------------------
A:---------------------------------------------------------------
E:--------------0*-----------------------------------------------

G:---------------------------------------------------------------
D:---------------------------------------------------------------
A:---------------------------------------------------------------
E:-4*----------------------------0*------------------------------

G:---------------------------------------------------------------
D:---------------------------------------------------------------
A:-4*------------------------------------------------------------
E:-----------------------------0-0-0-0----2222-------------------

G:---------------------------------------------------------------
D:---------------------------------------------------------------
A:---------------------------------------------------------------
E:-4*----------------------------0*------------------------------

G:---------------------------------------------------------------
D:---------------------------------------------------------------
A:-4*------------------------------------------------------------
E:----------------1-1-1-1--4-4-4-4-------------------------------

Order of what to play:

1. intro
2. verses 1 & 2
3. chorus
4. bridge
5. chorus

Comments