Nofx - Clams Have Feelings Too Chords & Tabs

 

Clams Have Feelings Too Chords & Tabs

Nofx Chords & Tabs

Version: 1 Type: Tab 0 ratings
1 star 2 stars 3 stars 4 stars 5 stars
comments

Clams Have Feelings Too Tab

 #---------------------------------PLEASE NOTE---------------------------------#
 # This file is the author's own work and represnts their interpretation of the#
 #song.You may only use this file for private study, scholorship, or research. # 
 #-----------------------------------------------------------------------------#

Artist:Nofx
Song:Clams Dont Have Feelings (Acually They Do)
Album:Pump Up the Vallum
Tabbed by: Joe L
Tuneing: standard
Date:12-21-02 8:16 AM
E-mail:anti_government@hotmail.com


 The intro has the bass playing a line then the guitar comes in
like this.. The it continues into this..
                  |---PM---|
E|-----------------------------------------------
B|-5---9--------2-----------2--------------------
G|-6-6-9--------2--2-2-2-2--2--2-2---------------
D|-6-7-9--------2--2-2-2-2--2--2-2---------------
A|-4-7-7--------0--0-0-0-0--0--0-0---------------
E|---5-------------------------------------------
    |---PM---|           |---PM---|
E|-----------------------------------------------
B|---------------------7-----------7-------------
G|-8--8-8-8-8--8--8-8--7--7-7-7-7--7--7-7--------
D|-7--7-7-7-7--7--7-7--7--7-7-7-7--7--7-7--------
A|-6--6-6-6-6--6--6-6--5--5-5-5-5--5--5-5--------
E|-----------------------------------------------

The first two verses' chords go like this....
E|------4----------------4--2--5--5--------------
B|-2----5-------------2--5--2--7--6--------------
G|-2----6--7---9------2--6--2--7--7--------------
D|-2----6--7-7-9------2--6--4--7--7--------------
A|-0----4--5-7-7------0--4--4--5--5--------------
E|-----------5--------------2--------------------

 The chorus goes like this....
E|--2--5--5--3--5--------------------------------
B|--2--7--5--3--7--------------------------------
G|--2--7--6--4--7--------------------------------
D|--4--7--7--5--7--------------------------------
A|--4--5--7--5--5--------------------------------
E|--2-----5--3-----------------------------------

The third verse (or bridge if you like, because 
of the Key change) goes like this...
E|------6--------------6--4--7--7----------------
B|-4----7-----------4--7--4--9--8----------------
G|-4----8--9---11---4--8--4--9--9----------------
D|-4----8--9-9-11---4--8--6--9--9----------------
A|-2----6--7-9-9----2--6--6--7--7----------------
E|-----------7------------4----------------------

Solo break......

Chords under Solo......
E|-2--4--------7----2--6--4--7---------------------
B|-4--4--------9----4--7--4--7---------------------
G|-4--4--------9----4--8--4--6---------------------
D|-4--6--9--7--9----4--8--8--5---------------------
A|-2--6--9--7--7----2--6--6--5---------------------
E|----4--7--5-------------4--7(h9)----------------- 
 The hammer onto 9 is at the very end of the solo.

 Solo......

E|-7-----7----7----7--------7-----7----7---------
B|-10br--10br-10br-10br-----10br--10br-10br-9----
G|-----------------------------------------------
D|-----------------------------------------------
A|-----------------------------------------------
E|-----------------------------------------------
[ Tab from: http://www.guitartabs.cc/tabs/n/nofx/clams_have_feelings_too_tab.html ]
                                  PH
E|-7-----7----7--------7-----7-9b-9-r9-7-7---7----
B|-10br--10br-10br-7h9---9-9---------------9---9--
G|------------------------------------------------
D|------------------------------------------------
A|------------------------------------------------
E|------------------------------------------------


E|---------------------------------4--------------
B|-4-4-4-4--------7--4---7-4-7-4-7---7-4----------
G|---------6bp4--------6-----------------6-4------
D|------------------------------------------------
A|------------------------------------------------
E|------------------------------------------------

        Bend and release the C# slowly. 
E|------------------------------------------------
B|-----4--4-4-4-4--5------------------------------
G|-----6b-6-6-6-6--4------------------------------
D|-4h6--------------------------------------------
A|------------------------------------------------
E|------------------------------------------------



These go the under "I don't believe it's selfish..."
E|-7-----6-----11-----7----------------------------
B|-7-----7-----12-----9----------------------------
G|-6-----8-----13-----9----------------------------
D|-9-----8-----13-----9----------------------------
A|-9-----6-----11-----7----------------------------
E|-7-----------------------------------------------

Outro.....
E|------6-7---7--7--4-6--7--7--9--6-7--------------
B|-4----7-9---7--7--4-7--9--7--11-7-9--------------
G|-4----8-9---8--7--4-8--9--8--11-8-9--------------
D|-4----8-9---9--8--6-8--9--9--11-8-9--------------
A|-2----6-7---9--8--6-6--7--9--9--6-7--------------
E|------------7--6--4-------7----------------------
And to end it....
     |---PM---|           |---PM---|
E|-------------------------------------------------
B|-4-----------4-----------------------------------
G|-4--4-4-4-4--4--4-4---10-10101010-10-1010--------
D|-4--4-4-4-4--4--4-4---9--9-9-9-9--9--9-9---------
A|-2--2-2-2-2--2--2-2---8--8-8-8-8--8--8-8---------
E|-------------------------------------------------

     |---PM---|
E|-------------------------------------------------
B|-9-----------9-----------------------------------
G|-9--9-9-9-9--9--9-9----8-8-6-8-------------------
D|-9--9-9-9-9--9--9-9----9-9-7-9-------------------
A|-7--7-7-7-7--7--7-7----9-9-7-9-------------------
E|-----------------------7-7-5-7-------------------
 

Clams Have Feelings Too (ACTUALLY THEY DON'T)Lyrics:

Birds are dumb cause small bird brains
But so are kids and old people
Some birds talk, most others sing
I don’t see you eating a talking bird

Pigs smell bad and roll in poo
But so do kids and elderly
I don’t see you chop of an old man’s feet
Put them in a mason jar and pickle them

No chowder for you, cause clams have feelings too
Actually they don’t have central nervousness
No manhatten style, clams have the right to smile
Come to thin about it they don’t have a face

They have no face, no place for ears
There’s no clam eyes to cry clam tears
No spixal cord, they must get bored
Might as well just put them out of misery

Although the world could be more selfish
I guess it’s alright to eat shellfish

No chowder for you, cause clams have feelings too
I could happen to you, clams have feelings too
I don’t think they do, clams have feelings too

Comments