Nofx - Cheese Wheres My Slice Chords & Tabs

 

Cheese Wheres My Slice Chords & Tabs

Nofx Chords & Tabs

Version: 1 Type: Bass Tab

Cheese Wheres My Slice Bass Tab

# intro #   *=play 3-4X     #=play 5-7X    %=pause    |
G-|--------------#----------|--------------#----------Then-play-|------------|
D-|--#------020-3------*---*|--*------020-3--------*--PART1-once|0-----22%22%|
A-|-0-----23---3------3---2-|-0-----23---3--------3---again-----|------------|
E-|--------PART1-2X---------|-------------------------|---------|------------|
:
# verse #   !play all notes 6X!        
G---------------------------------------------------|
D---2---------------3-------------------------------|
A-----------3---------------3-----------------------|
E-------1-------3-------3-------1---3---1---3---3---|
:                                                    
# chorus #   !play all notes 12X!
G-----------------------|            
D-----------------------|            
A---3-------0-----------|            
E-------------------1---|            
:
# solo-bridge #   *=play 4-6X                                   >
G--12*-----11*-----11*------9*-----12*-----12*--11-14*---1214*-->
D--------------------------------------------------------------->
A--------------------------------------------------------------->
E--------------------------------------------------------------->
>solo-bridge
>--12*--11-1216-14-12-11---|
>--------------------------|   
>--------------------------|
>--------------------------|
:
# verse2 #   !play all notes 6X!        
G---------------------------------------------------|
D---2---3-----------3-------------------------------|
A-----------3---------------3-----------------------|
E---------------3-------3-------1---3---1---3---3---|
:
# chorus2 #  *=play 12X
G-----------------------------------------|
D----*----------------------32--54--76----|
A---3--------*-------*--------3---5---7---|
E-----------0-------1---------------------|
:
# verse3 #   !play all notes 6X!        
G---------------------------------------------------|
D---4---------------5-------------------------------|
A-----------5---------------5-----------------------|
E-------3-------5-------5-------3---5---3---5---5---|
:
# chorus3 #   !play all notes 12X!
G-------------------------------------------------------|
D-------------------------------------------------------|
A---5-------2---------------5-------5-------------------|
E-------------------3-----------------------2-------3---|
:
# outro #A     *=play 12X       %=pause
G-----------------------------------------|
D----*------------------------------------|
A---5------%-*-------*------54--76--98----|
E-----------2------%3---------5---7---9\--|
:
[ Tab from: http://www.guitartabs.cc/tabs/n/nofx/cheese_wheres_my_slice_btab.html ]