Nofx - Champs Elysees Chords & Tabs

 

Champs Elysees Chords & Tabs

Nofx Chords & Tabs

Version: 2 Type: Tab 0 ratings
1 star 2 stars 3 stars 4 stars 5 stars
comments

Champs Elysees Tab

NOFX-CHAMPS ELISEES
ALBUM: SO LONG... AND THANKS FOR ALL THE SHOES


By:Stash Fortier(stash@nt.net)

INTRO(guitar 1)
e|--------------------------------------------------------------------|
B|--------------------------------------------------------------------|
G|--------------------------------------------------------------------|
D|---------------X3---------------------------------------------------|
A|-10-9-7-77-5------10-9-7-77-9---------------------------------------|
E|--------------------------------------------------------------------|

INTRO(guitar 2)
e|--------------------------------------------------------------------|
B|--------------------------------------------------------------------|
G|-5-XXX-5-XXX-12-XXX-12-XXX-7-XXX-7-XXX-10-XXX-10--------------------|
D|-5-XXX-5-XXX-12-XXX-12-XXX-7-XXX-5-XXX-10-XXX-10----X4--------------|
A|-3-XXX-3-XXX-10-XXX-10-XXX-5-XXX-5-XXX-8--XXX-8---------------------|
E|--------------------------------------------------------------------|

VERSE-NO GUITAR
[ Tab from: http://www.guitartabs.cc/tabs/n/nofx/champs_elysees_tab_ver_2.html ]
CHORUS
e|--------------------------------------------------------------------|
B|--------------------------------------------------------------------|
G|-----5---5-5-5-5-----------5-5-5-5----------------------------------|
D|-3-5-5---5-5-5-5-7-7-5-5---5-5-5-5-7-7-10-10------------------------|
A|-3-5-3---3-3-2-2-7-7-5-5---3-3-2-2-7-7-10-10------------------------|
E|-1-3-------------5-5-3-3-----------5-5-8--8-------------------------|

e|--------------------------------------------------------------------|
B|--------------------------------------------------------------------|
G|-5-5-5-5--12-12-12-12--5-5-5-5-5-5-5-5--5-5-5-5--10-10-10-10------5-|
D|-5-5-5-5--12-12-12-12--5-5-5-5-5-5-5-5--5-5-5-5--10-10-10-10--3-5-5-|
A|-3-3-3-3--10-10-10-10--3-3-3-3-3-3-3-3--3-3-3-3--8--8--8--8---3-5-3-|
E|--------------------------------------------------------------1-3---|

BRIDGE
e|--------------------------------------------------------------------|
B|--------------------------------------------------------------------|
G|-------------------5-5-5---------------------------5-5-5-5----------|
D|-3-3-3-3--5-5-5-5--5-5-5--7-7-7--3-3-3-3--5-5-5-5--5-5-5-5----X2----|
A|-3-3-3-3--5-5-5-5--3-3-2--7-7-7--3-3-3-3--5-5-5-5--3-3-2-3----------|
E|-1-1-1-1--3-3-3-3---------5-5-5--1-1-1-1--3-3-3-3-------------------|

REPEAT VERSE(NO GUITAR)
REPEAT CHORUS TWICE

Lyrics not in english(french i believe)

stash@nt.net for comments/questions
Comments