Nofx - Buggley Eyes Chords & Tabs

 

Buggley Eyes Chords & Tabs

Nofx Chords & Tabs

Version: 1 Type: Tab 0 ratings
1 star 2 stars 3 stars 4 stars 5 stars
comments

Buggley Eyes Tab

Submitted by Patrick Choi

Riff 1
e----0---0---0-0--------------------------------------------------
B----1---0---2-2--------------------------------------------------
G----0---1---2-2---------5---5------------------------------------
D--2-2-2-2-2-2-2---3--5--5-5-5------------------------------------
A--3---2---0-------3--5--3-5-3------------------------------------
E-----------------1--3-----3--------------------------------------

[ Tab from: http://www.guitartabs.cc/tabs/n/nofx/buggley_eyes_tab.html ]
Riff 2
e----0-0---0-0---0-0----------------------------------------------
B----1-1---0-0---2-2----------------------------------------------
G----0-0---1-1---2-2----------------------------------------------
D--2-2-2-2-2-2-2-2-2-3-3-5-5--------------------------------------
A--3-----2-----0-----3-3-5-5--------------------------------------
E--------------------1-1-3-3--------------------------------------

Riff 3
e----0---0---0-0-----------------0---------0----------------------
B----1---0---2-2-----------------2-------2------------------------
G----0---1---2-2---------5-5-4-3-2-----2------------5---5---------
D--2-2-2-2-2-2-2---3---5-5-5-4-3-2---2---------3--5-5-5-5---------
A--3---2---0-------3---5-3-3-2-1-0-0-----------3--5-3-5-3---------
E----------------1---3-----------------------1---3----3-----------

Riff 1: x3
Rfff 2: x1
Riff 1: x3
Riff 2: x1
Riff 3: x1
Riff 2: x1
Riff 1: x1
Comments