Nofx - Bottles To The Ground Chords & Tabs

 

Bottles To The Ground Chords & Tabs

Nofx Chords & Tabs

Version: 2 Type: Tab 0 ratings
1 star 2 stars 3 stars 4 stars 5 stars
comments

Bottles To The Ground Tab

 


   guitar 1    palm mute
e|-------------------------------|-------------------------------|
b|------0 0----0 0----0 0----0 0-|----1 1----1 1----1 1----1 1---| 
g|------0 0----0 0----0 0----0 0-|----0 0----0 0----0 0----0 0---|  X4
d|---2 2----2 2----2 2----2 2----|-2 2----2 2----2 2----2 2------| 
a|-------------------------------|-------------------------------| 
E|-------------------------------|-------------------------------|
 after you play the intro four times then just play the first half of it 4 times and then the second half 2 times

  guitar 2 -comes in over top of guitar 1 on the second time around on the intro

|-------------------------------|-------------------------------|
|-------------------------------|-------------------------------| 
|-----------------5 5--5 5--5 5-|-----------------5 5--5 5--5 5-| 
|-2 2--2 2--2 2---5 5--5 5--5 5-|-2 2--2 2--2 2---5 5--5 5--5 5-| 
|-2 2--2 2--2 2---3 3--3 3--3 3-|-2 2--2 2--2 2---3 3--3 3--3 3-| 
|-0 0--0 0--0 0-----------------|-0 0--0 0--0 0-----------------|


 verse    (Palm mute until chours)
|---------------------------------|---------------------------------|
|---------------------------------|---------------------------------| 
|-9-9-9-9-9-9-9-9-9-9-9-9-9-9-9-9-|-8-8-8-8-8-8-8-8-8-8-8-8-8-8-8-8-|
|-9-9-9-9-9-9-9-9-9-9-9-9-9-9-9-9-|-8-8-8-8-8-8-8-8-8-8-8-8-8-8-8-8-|
|-7-7-7-7-7-7-7-7-7-7-7-7-7-7-7-7-|-6-6-6-6-6-6-6-6-6-6-6-6-6-6-6-6-|
|---------------------------------|---------------------------------|

|----------------------------------|---------------------------------|
|----------------------------------|---------------------------------| 
|-7-7-7-7-7-7-7-7-7-7-7-7-7-7-7-7--|-6-6-6-6-6-6-6-6-6-6-6-6-6-6-6-6-| 
|-7-7-7-7-7-7-7-7-7-7-7-7-7-7-7-7--|-6-6-6-6-6-6-6-6-6-6-6-6-6-6-6-6-| 
|-5-5-5-5-5-5-5-5-5-5-5-5-5-5-5-5--|-4-4-4-4-4-4-4-4-4-4-4-4-4-4-4-4-| 
|----------------------------------|---------------------------------|

|----------------------------------|
|----------------------------------|
|--5-5-5-5-5-5-5-5-5-5-5-5-5-5-5-5-|  X2
|--5-5-5-5-5-5-5-5-5-5-5-5-5-5-5-5-|
|--3-3-3-3-3-3-3-3-3-3-3-3-3-3-3-3-| 
|----------------------------------|

chorus
|--------------------------------------|
|--------------------------------------| 
|-------------------5-5-5-5------------| X3
|-5-5-5-5--3-3-3-3--5-5-5-5--5-5-5-5---| 
|-5-5-5-5--3-3-3-3--3-3-3-3--5-5-5-5---| 
|-3-3-3-3--1-1-1-1-----------3-3-3-3---|

|-----------------------------------|
|-----------------------------------| 
|------------------5-5-5-5-5-5-5-5--|  
|-7-7-7-7-7-7-7-7--5-5-5-5-5-5-5-5--| 
|-7-7-7-7-7-7-7-7--3-3-3-3-3-3-3-3--|
|-5-5-5-5-5-5-5-5-------------------|

at this point you pretty much go back and repeat everything you just did
  guitar 1 -come in right away  (palm mute)
|-------------------------------|-------------------------------|
|------0 0----0 0----0 0----0 0-|----1 1----1 1----1 1----1 1---| 
|------0 0----0 0----0 0----0 0-|----0 0----0 0----0 0----0 0---|  X2
|---2 2----2 2----2 2----2 2----|-2 2----2 2----2 2----2 2------| 
|-------------------------------|-------------------------------| 
|-------------------------------|-------------------------------|
 play the first half 4 times and the second half 2 times


  guitar 2 -comes in over top of guitar 1 after one run of the intro
|--------------------------------|
|--------------------------------| 
|-----------------5 5---5 5--5 5-| 
|-2 2---2 2--2 2--5 5---5 5--5 5-| 
|-2 2---2 2--2 2--3 3---3 3--3 3-| 
|-0 0---0 0--0 0-----------------|
[ Tab from: http://www.guitartabs.cc/tabs/n/nofx/bottles_to_the_ground_tab_ver_2.html ]
  verse  (palm mute until chorus)
|---------------------------------|---------------------------------|
|---------------------------------|---------------------------------| 
|-9-9-9-9-9-9-9-9-9-9-9-9-9-9-9-9-|-8-8-8-8-8-8-8-8-8-8-8-8-8-8-8-8-|
|-9-9-9-9-9-9-9-9-9-9-9-9-9-9-9-9-|-8-8-8-8-8-8-8-8-8-8-8-8-8-8-8-8-|
|-7-7-7-7-7-7-7-7-7-7-7-7-7-7-7-7-|-6-6-6-6-6-6-6-6-6-6-6-6-6-6-6-6-|
|---------------------------------|---------------------------------|

|---------------------------------|---------------------------------|
|---------------------------------|---------------------------------| 
|-7-7-7-7-7-7-7-7-7-7-7-7-7-7-7-7-|-6-6-6-6-6-6-6-6-6-6-6-6-6-6-6-6-| 
|-7-7-7-7-7-7-7-7-7-7-7-7-7-7-7-7-|-6-6-6-6-6-6-6-6-6-6-6-6-6-6-6-6-| 
|-5-5-5-5-5-5-5-5-5-5-5-5-5-5-5-5-|-4-4-4-4-4-4-4-4-4-4-4-4-4-4-4-4-| 
|---------------------------------|---------------------------------|


|---------------------------------|
|---------------------------------|
|-5-5-5-5-5-5-5-5-5-5-5-5-5-5-5-5-|  X2
|-5-5-5-5-5-5-5-5-5-5-5-5-5-5-5-5-|
|-3-3-3-3-3-3-3-3-3-3-3-3-3-3-3-3-| 
|---------------------------------|

  chorus
|--------------------------------------|
|--------------------------------------| 
|-------------------5-5-5-5------------| X3
|-5-5-5-5--3-3-3-3--5-5-5-5--5-5-5-5---| 
|-5-5-5-5--3-3-3-3--3-3-3-3--5-5-5-5---| 
|-3-3-3-3--1-1-1-1-----------3-3-3-3---|


|-----------------------------------|
|-----------------------------------| 
|------------------5-5-5-5-5-5-5-5--|  
|-7-7-7-7-7-7-7-7--5-5-5-5-5-5-5-5--| 
|-7-7-7-7-7-7-7-7--3-3-3-3-3-3-3-3--|
|-5-5-5-5-5-5-5-5-------------------|

  bridge    (palm mute until the ending)
|---------------------------------|---------------------------------|
|---------------------------------|---------------------------------| 
|---------------------------------|---------------------------------|
|-5-5-5-5-5-5-5-5-5-5-5-5-5-5-5-5-|-7-7-7-7-7-7-7-7-7-7-7-7-7-7-7-7-|
|-5-5-5-5-5-5-5-5-5-5-5-5-5-5-5-5-|-7-7-7-7-7-7-7-7-7-7-7-7-7-7-7-7-|
|-3-3-3-3-3-3-3-3-3-3-3-3-3-3-3-3-|-5-5-5-5-5-5-5-5-5-5-5-5-5-5-5-5-|


|-------------------------------|-----------------------------------|
|-------------------------------|-----------------------------------| 
|-5-5-5-5-5-5-5-5-5-5-5-5-5-5---|-----------------------------------| 
|-5-5-5-5-5-5-5-5-5-5-5-5-5-5---|--5-5-5-5-5-5-5-5-5-5-5-5-5-5-5-5--| 
|-3-3-3-3-3-3-3-3-3-3-3-3-3-3---|--5-5-5-5-5-5-5-5-5-5-5-5-5-5-5-5--| 
|-------------------------------|--3-3-3-3-3-3-3-3-3-3-3-3-3-3-3-3--|


|----------------------------------|--------------------------------|
|----------------------------------|--------------------------------| 
|----------------------------------|-5-5-5-5-5-5-5-5-5-5-5-5-5-5----| 
|-7-7-7-7-7-7-7-7-7-7-7-7-7-7-7-7--|-5-5-5-5-5-5-5-5-5-5-5-5-5-5----| 
|-7-7-7-7-7-7-7-7-7-7-7-7-7-7-7-7--|-3-3-3-3-3-3-3-3-3-3-3-3-3-3----| 
|-5-5-5-5-5-5-5-5-5-5-5-5-5-5-5-5--|--------------------------------|


|----------------------------------|----------------------------------|
|----------------------------------|----------------------------------| 
|----------------------------------|-8-8-8-8-8-8-8-8-8-8-8-8-8-8-8-8--| 
|-5-5-5-5-5-5-5-5-5-5-5-5-5-5-5-5--|-8-8-8-8-8-8-8-8-8-8-8-8-8-8-8-8--| 
|-5-5-5-5-5-5-5-5-5-5-5-5-5-5-5-5--|-6-6-6-6-6-6-6-6-6-6-6-6-6-6-6-6--| 
|-3-3-3-3-3-3-3-3-3-3-3-3-3-3-3-3--|----------------------------------|

  ending
|-----------------------------------|
|-----------------------------------| 
|----------5-5-5-5-5-5-5-5----------| 
|-7-7-7-7--5-5-5-5-5-5-5-5--5-5-5-5-| X4
|-7-7-7-7--5-3-3-3-3-3-3-3--5-5-5-5-| 
|-5-5-5-5-------------------3-3-3-3-|  

                                         (palm mute)
|-------------------------------------|----------------------|
|-------------------------------------|----------------------|
|-----------------------------5-5-5-5-|-----------------5 5--|
|--3-3-3-3--7-7-7-7--5-5-5-5--5-5-5-5-|--3 3--7 7--5 5--5 5--|
|--3-3-3-3--7-7-7-7--5-5-5-5--3-3-3-3-|--3 3--7 7--5 5--3 3--|
|--1-1-1-1--5-5-5-5--3-3-3-3----------|--1 1--5 5--3 3-------|


Comments