Nofx - Bottles To The Ground Chords & Tabs

 

Bottles To The Ground Chords & Tabs

Nofx Chords & Tabs

Version: 2 Type: Bass Tab 0 ratings
1 star 2 stars 3 stars 4 stars 5 stars
comments

Bottles To The Ground Bass Tab

Song: Bottles to the ground
Band: NoFx
Tabbed By: Dave Parisi
[ Tab from: http://www.guitartabs.cc/tabs/n/nofx/bottles_to_the_ground_btab_ver_2.html ]
Riff 1:
G:------------------------------------------------------
D:------------------------------------------------------
A:------------------------------------------------------
E:---0--slide---12------then-------12---slide----0------
Riff 2:
G:------------------------
D:------------------------
A:------------------------
E:---000000----000000-----
Riff 3:
G:----------------------------------
D:----------------------------------
A:----------------------------------
E:---0---3---5---3---0---3---5---3--
Riff 4
:G:-------------------------------
D:-------------------------------
A:-------------------------------
E:---12---11---10---9---8--------
Riff 5:
G:---------------------------
D:---------------------------
A:-------------3-------------
E:---3---1-----------3-------
Riff 6:
G:----------------------
D:----------------------
A:-----------3----------
E:---5------------------
Riff 7:
G:------------------------------
D:------------------------------
A:------------------------------
E:-----3----------5-------8-----
Riff 8:
G:------------------------
D:------------------------
A:------------------------
E:-----3---------4--------
Riff 9:
G:---------------------------------
D:---------------------------------
A:-----------3--------5-------3----
E:------3--------------------------
Order:  1,2,3,4,5,6,2,3,4,5,6,7,8,7,9

Comments