Nofx - Bob Chords & Tabs

 

Bob Chords & Tabs

Nofx Chords & Tabs

Version: 6 Type: Tab 0 ratings
1 star 2 stars 3 stars 4 stars 5 stars
comments

Bob Tab

   
ALBUM: white trash, 2 heebs and a been  
ARTIST: nofx
SONG: bob


pm-pm-pm-pm-pm-pm-pm-pm-pm-pm-pm-pm-pm-pm-pm-pm-pm-pm-pm-pm-pm-pm-pm-pm-
  C5                      F5                      C5
  1  &  2  &  3  &  4  &  1  &  2  &  3  &  4  &  1  &  2  &  3  &  4  &
e:-----------------------|-----------------------|-----------------------|
B:-----------------------|-----------------------|-----------------------|
G:5--5--5--5--5--5--5--5-|-----------------------|5--5--5--5--5--5--5--5-|
D:5--5--5--5--5--5--5--5-|3--3--3--3--3--3--3--3-|3--5--5--5--5--5--5--5-|
A:3--3--3--3--3--3--3--3-|3--3--3--3--3--3--3--3-|3--3--3--3--3--3--3--3-|
E:-----------------------|1--1--1--1--1--1--1--1-|-----------------------|
  SPENT 15 YEARS GET LOADED 15 YEARS TILL HIS....NOW WHAT BOB GONNA DO....


  pm-pm-pm-pm-pm-pm-pm-pm-
  F5                      C5                      F5
  1  &  2  &  3  &  4  &  1  &  2  &  3  &  4  &  1  &  2  &  3  &  4  &
e:-----------------------|-----------------------|-----------------------|
B:-----------------------|-----------------------|-----------------------|
G:-----------------------|5----------------------|-----------------------|
D:3--3--3--3--3--3--3--3-|5----------------------|3----------------------|
A:3--3--3--3--3--3--3--3-|3----------------------|3----------------------|
E:1--1--1--1--1--1--1--1-|-----------------------|1----------------------|
  THAT HE CAN'T..THE DOC...WATCHA THINKIN ABOUT BOB SAID THATS THE POINT


  Vstrum hard
  C5                      F5                      C5
  1  &  2  &  3  &  4  &  1  &  2  &  3  &  4  &  1  &  2  &  3  &  4  &
e:-----------------------|-----------------------|-----------------------|
B:-----------------------|-----------------------|-----------------------|
G:5----------------------|-----------------------|5-----5--5--5--5--5--5-|
D:5----------------------|3----------------------|5-----5--5--5--5--5--5-|
A:3----------------------|3----------------------|3-----3--3--3--3--3--3-|
E:-----------------------|1----------------------|-----------------------|
   WASN'T THINK BOUT NOTHIN I GOTTA DO...OI,OI,OI..HE GONNA CHANGE HIS WAY
  
  
  Vstrum hard            Vstrum hard              Vstrum hard
  F5                      C5                      F5
  1  &  2  &  3  &  4  &  1  &  2  &  3  &  4  &  1  &  2  &  3  &  4  &
e:-----------------------|-----------------------|-----------------------|
B:-----------------------|-----------------------|-----------------------|
G:-----------------------|5-----5--5--5--5--5--5-|-----------------------|
D:3-----3--3--3--3--3--3-|5-----5--5--5--5--5--5-|3-----3--3--3--3--3--3-|
A:3-----3--3--3--3--3--3-|3-----3--3--3--3--3--3-|3-----3--3--3--3--3--3-|
E:1-----1--1--1--1--1--1-|-----------------------|1-----1--1--1--1--1--1-|
  GOT A NEW IDENTITY   62 HOLED AIR CUSHIONED BOOTS & A GIRL RIDE A.......


  1  &  2  &  3  &  4  &  1  &  2  &  3  &  4  &
e:riffA-riffA-riffA-riffA|riffA-riffA-riffA-riffA|-----------------------|
B:5-----5-----8-----8----|5-----5-----6-----6----|-------play-riffA------|
G:5-----5-----7-----7----|5-----5-----5-----5----|----------4x-----------|
D:-----------------------|-----------------------|-----trumpet-solo------|
A:-----------------------|-----------------------|-----------------------|
E:-----------------------|-----------------------|-----------------------|
  OUT OF TOWN SO HE COULD.....THE MOTHERFUCKER GO.... (TRUMPET SOLO).....

[ Tab from: http://www.guitartabs.cc/tabs/n/nofx/bob_tab_ver_6.html ]
  C5                      F5                      C5
  1  &  2  &  3  &  4  &  1  &  2  &  3  &  4  &  1  &  2  &  3  &  4  &
e:-----------------------|-----------------------|-----------------------|
B:-----------------------|-----------------------|-----------------------|
G:5----------------------|-----------------------|5----------------------|
D:3----------------------|3----------------------|5----------------------|
A:3----------------------|3----------------------|3----------------------|
E:-----------------------|1----------------------|-----------------------|
  A COUPLE OF LINES.......HE'LL BE KICKIN' HIS....BOB THE KINDA GUY HE....
                                                               

  E5                      F5
  1  &  2  &  3  &  4  &  1  &  2  &  3  &  4  &  1  &  2  &
e:-----------------------|-----------------------|-----------||
B:-----------------------|-----------------------|-----------||
G:9-----9--9--9--9--9--9-|10----10-10-10-10-10-10|10-10-10-10||
D:9-----9--9--9--9--9--9-|8-----8--8--8--8--8--8-|8--8--8--8-||
A:7-----7--7--7--7--7--7-|8-----8--8--8--8--8--8-|8--8--8--8-||
E:-----------------------|-----------------------|-----------||
  BOB THE KINDA GUY HE KNOWS JUST WHAT TO DO WHEN THE DOC.....


  C5                      Bb5                     F5
  1  &  2  &  3  &  4  &  1  &  2  &  3  &  4  &  1  &  2  &  3  &  4  &
e:-----------------------|-----------------------|-----------------------|
B:-----------------------|-----------------------|-----------------------|
G:5-----5--5--5--5--5--5-|3-----3--3--3--3--3--3-|-----------------------|
D:5-----5--5--5--5--5--5-|3-----3--3--3--3--3--3-|3-----3--3--3--3--3--3-|
A:3-----3--3--3--3--3--3-|1-----1--1--1--1--1--1-|3-----3--3--3--3--3--3-|
E:-----------------------|-----------------------|1-----1--1--1--1--1--1-|
      WE'LL       GO            DRINKING            AFTER     DARK


  G5                      C5                      Bb5
  1  &  2  &  3  &  4  &  1  &  2  &  3  &  4  &  1  &  2  &  3  &  4  &
e:-----------------------|-----------------------|-----------------------|
B:-----------------------|-----------------------|-----------------------|
G:-----------------------|5-----5--5--5--5--5--5-|3-----3--3--3--3--3--3-|
D:5-----5--5--5--5--5--5-|5-----5--5--5--5--5--5-|3-----3--3--3--3--3--3-|
A:5-----5--5--5--5--5--5-|3-----3--3--3--3--3--3-|1-----1--1--1--1--1--1-|
E:3-----3--3--3--3--3--3-|-----------------------|-----------------------|
     WILL  HE  EVER         WALK  THE  LINE          ALL HE DID WAS
  
  
  F5                      G5                      C5
  1  &  2  &  3  &  4  &  1  &  2  &  3  &  4  &  1  &  2  &  3  &  4  &
e:-----------------------|-----------------------|-----------------------|
B:-----------------------|-----------------------|-----------------------|
G:-----------------------|-----------------------|5-----5--5--5--5--5--5-|
D:3-----3--3--3--3--3--3-|5-----5--5--5--5--5--5-|5-----5--5--5--5--5--5-|
A:3-----3--3--3--3--3--3-|5-----5--5--5--5--5--5-|3-----3--3--3--3--3--3-|
E:1-----1--1--1--1--1--1-|3-----3--3--3--3--3--3-|-----------------------|
    TAKE  A  DRINK          WILL  HE   EVER          WALK   THE   LINE


  Bb5                     F5                      G5
  1  &  2  &  3  &  4  &  1  &  2  &  3  &  4  &  1  &  2  &  3  &  4  &
e:-----------------------|-----------------------|-----------------------||
B:-----------------------|-----------------------|-----------------------||
G:3-----3--3--3--3--3--3-|-----------------------|-----------------------||
D:3-----3--3--3--3--3--3-|3-----3--3--3--3--3--3-|5-----5--5--5--5--5--5-||
A:1-----1--1--1--1--1--1-|3-----3--3--3--3--3--3-|5-----5--5--5--5--5--5-||
E:-----------------------|1-----1--1--1--1--1--1-|3-----3--3--3--3--3--3-||
      KICKING   ASS    &       BUSTING    HEADS      RED   SUSPENDER      

                       Continue with the same rythm


C5       Bb5          F5                   G5
TILL ONE DAY HE SHAVED HIS HEAD     WILL HE EVER WALK THE LINE

C5       Bb5          F5                   G5
WILL HE EVER WALK THE LINE          WILL HE EVER WALK THE LINE

C5       Bb5          F5                   G5
WILL HE EVER WALK THE LINE          WILL HE EVER WALK THE LINE
                       
                       riffA two times
       SHOOBEE DOO BEE......................BOP
Comments