Nofx - Bob Chords & Tabs

 

Bob Chords & Tabs

Nofx Chords & Tabs

Version: 5 Type: Tab 0 ratings
1 star 2 stars 3 stars 4 stars 5 stars
comments

Bob Tab

NOFX - BOB by Samuel Leite


E|-----------------------
B|-----------------------
G|-----------------------
D|-9xxx--2xxx--9xxx--2xxx
A|-9xxx--2xxx--9xxx--2xxx
E|-7xxx--0xxx--7xxx--0xxx

the doctor said!


E|-----------------------
B|-----------------------
G|-----------------------
D|-9~~--2~~--9~~--2~~----
A|-9~~--2~~--9~~--2~~----
E|-7~~--0~~--7~~--0~~----

when it gets faster

E|-----------------------
B|-----------------------
G|-----------------------
D|-999--222--999--222----
A|-999--222--999--222----
E|-777--000--777--000----

...out of town
ska part
[ Tab from: http://www.guitartabs.cc/tabs/n/nofx/bob_tab_ver_5.html ]
E|-------------------------
B|--44--77--88--55---------
G|--55--66--77--55---------
D|-------------------------
A|-------------------------
E|-------------------------

after el hefe is done with his stuff

E|-----------------------
B|-----------------------
G|-----------------------
D|-9~~--2~~--9~~--2~~----
A|-9~~--2~~--9~~--2~~----
E|-7~~--0~~--7~~--0~~----

when teh doctor tells him to

E|-----------------------
B|-----------------------
G|-----------------------
D|-999--777--222--444----
A|-999--777--222--444----
E|-777--555--000--222----

bobaridooo...

E|-------------------------
B|--44--77--88--55---------
G|--55--66--77--55---------
D|-------------------------
A|-------------------------
E|-------------------------


well thats it, its mostly right i beleive xD
have fun

Sam0eL xD
Comments