Nofx - Bob Chords & Tabs

 

Bob Chords & Tabs

Nofx Chords & Tabs

Version: 4 Type: Tab 0 ratings
1 star 2 stars 3 stars 4 stars 5 stars
comments

Bob Tab

***NOTE THIS IS THE NOFX/RANCID VERSION OF "BOB"***

Standard Tuning, heavy distortion (as always)


Intro/Verse Palm Muted = *
e|-----------------------------------------------------------------------
B|-----------------------------------------------------------------------
G|--55-5--55-5--55-5--55-5-----------------------------------------------
D|--55-5--55-5--55-5--55-5--33-3--33-3--33-3--33-3----------------------- X2
A|--33-3--33-3--33-3--33-3--33-3--33-3--33-3--33-3-----------------------
E|--------------------------11-1--11-1--11-1--11-1-----------------------
    **    **    **    **    **    **    **    **

Next 2 Verses
e|-----------------------------------------------------------------------
B|-----------------------------------------------------------------------
G|-----5-----------------5-----------------------------------------------
D|-----5--------3--------5--------3-------------------------------------- X2
A|-----3--------3--------3--------3--------------------------------------
E|--------------1-----------------1--------------------------------------


e|-----------------------------------------------------------------------
B|-----------------------------------------------------------------------
G|--5-5-5----------------------------------------------------------------
D|--5-5-5----5-5-5----7-7-7----3-3-3------------------------------------- x2
A|--3-3-3----5-5-5----7-7-7----3-3-3-------------------------------------
E|-----------3-3-3----5-5-5----1-1-1-------------------------------------


Ah, now the fun part...I figured this out 100% on my own and for the amount of
distortion i think i did pretty damn good...
[ Tab from: http://www.guitartabs.cc/tabs/n/nofx/bob_tab_ver_4.html ]
e|-----------------------------------------------------------------------
B|----------------5--5--8-5----------------------------------------------
G|----------5-----8b-8b-----7-5--5-5-7--5--------5---------5-5-4-55-77-99
D|---55-5h7-------------------------------7-5--7----7-5--7---------------
A|-----------------------------------------------------------------------
E|-----------------------------------------------------------------------

e|----------8888877788--888877101010---10-10-10p8--8-8-8p7--7-7-7p5------
B|---66---888888888888888888888-8-8--------------------------------------
G|-----------------------------------------------------------------------
D|-----------------------------------------------------------------------
A|-----------------------------------------------------------------------
E|-----------------------------------------------------------------------

e|-----------------------------------------------------------------------
B|-10-10-10p8--8-8-8p6--6-6-6p5--5-5-5h6--6-6-6h7~-----------------------
G|-----------------------------------------------------------------------
D|-----------------------------------------------------------------------
A|-----------------------------------------------------------------------
E|-----------------------------------------------------------------------


e|-----------------------------------------------------------------------
B|-----------------------------------------------------------------------
G|---5-----------5-------------------------------------------------------
D|---5-----3-----5----2---3---------------------------------------------- X1
A|---3-----3-----3----2---3----------------------------------------------
E|---------1----------0---1----------------------------------------------

e|-----------------------------------------------------------------------
B|-----------------------------------------------------------------------
G|----5-5-5---3-3-3------------------------------------------------------
D|----5-5-5---3-3-3---3-3-3----5-5-5-------------------------------------
A|----3-3-3---1-1-1---3-3-3----5-5-5-------------------------------------
E|--------------------1-1-1----3-3-3-------------------------------------
  Repeat this riff to the end....

  Good luck eh, i worked hard on this tab so u better $@!#'in appriciate
this,...haha all 100% writtin by me (sk8er_boi_punk_rocker@hotmail.com)
so tell all ur friends......
Comments