Nofx - Bob Chords & Tabs

 

Bob Chords & Tabs

Nofx Chords & Tabs

Version: 3 Type: Tab 0 ratings
1 star 2 stars 3 stars 4 stars 5 stars
comments

Bob Tab

PM=palm mute

e------------------------------------------------
B------------------------------------------------
G-5-------------5--------------------------------PM
D-5-(16)-3------5-(16)-3-------------------------
A-3------3-(16)-3------3-(16)--------------------
E--------1-------------1-------------------------

e------------------------------------------------
B------------------------------------------------
G-5-------------5--------------------------------
D-5-hold-3------5-hold-3-------------------------
A-3------3-hold-3------3-hold--------------------
E--------1-------------1-------------------------

   not sure how many listen to the song its easy 
e------------------------------------------------
B------------------------------------------------
G-5-------------5--------------------------------
D-5------3------5------3-------------------------
A-3------3------3------3-------------------------
E--------1-------------1-------------------------

                  use up stroaks
[ Tab from: http://www.guitartabs.cc/tabs/n/nofx/bob_tab_ver_3.html ]
e-0-0----3-3----1-0----1-1-----------------------
B-1-1----3-3----1-0----1-1-----------------------
G------------------------------------------------x6
D------------------------------------------------
A------------------------------------------------
E------------------------------------------------


e------------------------------------------------
B------------------------------------------------
G-5-------------5------3-------------------------
D-5-hold-3------5-hold-3-x8-3--------------------
A-3------3-hold-3------1----3-x8-----------------
E--------1------------------1--------------------


e------------------------------------------------
B------------------------------------------------
G-5----3-----------------------------------------
D-5-x8-3-x8-3----5-------------------------------x6
A-3----1----3-x8-5-x8----------------------------
E-----------1----3-------------------------------

e-0-0----3-3----1-0----1-1-----------------------
B-1-1----3-3----1-0----1-1-----------------------
G------------------------------------------------
D------------------------------------------------x2
A------------------------------------------------
E------------------------------------------------
Comments