Nofx - Bob Chords & Tabs

 

Bob Chords & Tabs

Nofx Chords & Tabs

Version: 2 Type: Tab 1 rating
1 star 2 stars 3 stars 4 stars 5 stars
comments

Bob Tab

From: Simon Anderson Simon_Eat_World@Hotmail.com
Group: NOFX
Album: white trash, two heebs and a bean
Released: 1992 epitaph records
Track: 3
Title: bob

pm - palm mute
: - let ring


intro/verse

pm_____________________________________________________________|
|-------------------------------|------------------------------|
|-------------------------------|------------------------------|
|-5-5-5-5-5-5-5-5-5-5-5-5-5-5-5-|------------------------------|
|-5-5-5-5-5-5-5-5-5-5-5-5-5-5-5-|3-3-3-3-3-3-3-3-3-3-3-3-3-3-3-|
|-3-3-3-3-3-3-3-3-3-3-3-3-3-3-3-|3-3-3-3-3-3-3-3-3-3-3-3-3-3-3-|
|-------------------------------|1-1-1-1-1-1-1-1-1-1-1-1-1-1-1-|
  
pm_____________________________________________________________|
|-------------------------------|------------------------------|
|-------------------------------|------------------------------|
|-5-5-5-5-5-5-5-5-5-5-5-5-5-5-5-|------------------------------|
|-5-5-5-5-5-5-5-5-5-5-5-5-5-5-5-|3-3-3-3-3-3-3-3-3-3-3-3-3-3-3-|
|-3-3-3-3-3-3-3-3-3-3-3-3-3-3-3-|3-3-3-3-3-3-3-3-3-3-3-3-3-3-3-|
|-------------------------------|1-1-1-1-1-1-1-1-1-1-1-1-1-1-1-|

|-------------------------------------|
|-------------------------------------|
|-5:----------------5:----------------|
|-5:-------3:-------5:-------3:-------|
|-3:-------3:-------3:-------3:-------|
|----------1:----------------1:-------|

|-----------------------------------------------|
|-----------------------------------------------|
|5--5-5-5-5--5--5-5-5-5-------------------------|
|5--5-5-5-5--5--5-5-5-5--3--3-3-3-3--3--3-3-3-3-|
|3--3-3-3-3--3--3-3-3-3--3--3-3-3-3--3--3-3-3-3-|
|------------------------1--1-1-1-1--1--1-1-1-1-|

|-----------------------------------------------|
|-----------------------------------------------|
|5--5-5-5-5--5--5-5-5-5-------------------------|
|5--5-5-5-5--5--5-5-5-5--3--3-3-3-3--3--3-3-3-3-|
|3--3-3-3-3--3--3-3-3-3--3--3-3-3-3--3--3-3-3-3-|
|------------------------1--1-1-1-1--1--1-1-1-1-|
[ Tab from: http://www.guitartabs.cc/tabs/n/nofx/bob_tab_ver_2.html ]
riff
  
|-----------------------------------------------|  
|-5-----5-----8-----8----5-----5-----6-----6----|
|-5-----5-----7-----7----5-----5-----5-----5----|
|-----------------------------------------------|
|-----------------------------------------------|
|-----------------------------------------------|
 
"bob's the kinda guy....." part

|-------------------------------------------------------|
|-------------------------------------------------------|
|-5:----------------5:--------9:-----10:----10-10-10-10-|
|-5:-------3:-------5:--------9:-----10:----10-10-10-10-|
|-3:-------3:-------3:--------7:------8:-----8--8--8--8-|
|----------1:-------------------------------------------|

played after above for the rest of the song until the riff

|-------------------------------------------------|
|-------------------------------------------------|
|-5--5-5-5-5--3--3-3-3-3--------------------------|
|-5--5-5-5-5--3--3-3-3-3--3--3-3-3-3--5--5-5-5-5--|
|-3--3-3-3-3--1--1-1-1-1--3--3-3-3-3--5--5-5-5-5--|
|-------------------------1--1-1-1-1--3--3-3-3-3--|

lyrics

fifteen years getting loaded fifteen years 'till his liver exploded
now what's bob gonna do now that he can't drink?
the doc said "what were you thinking 'bout?"
bob said "that's just the point, i wasn't thinking 'bout nothing
now i gotta do something else  to pass the time."
had someone shave his head got a new identity
sixty-two holed aired cushioned boots
and a girl who rides a scooter to take him out of town
they could get away, riding around as the trucks drive by
you could hear the mother truckers go...
a couple of lines, an extra thermos of joe
he'll be kickin' in heads at the punk rock show, yeah
bob's the kinda guy who knows just
bob's the kinda guy who know's just what to do
when the doctor tells him to "quit your drinking, now's the time" 
will he ever walk the line? to all my friends i feel just great 
but will he ever walk the line? kickin' ass and bustin heads
red suspenders, once a day he shaves his head
but will he ever walk the line?



Comments