Nofx - Bob Chords & Tabs

 

Bob Chords & Tabs

Nofx Chords & Tabs

Version: 3 Type: Bass Tab 0 ratings
1 star 2 stars 3 stars 4 stars 5 stars
comments

Bob Bass Tab

   
Artist: NOFX
Song: Bob

If you know nothing about timing, you might not understand this.

Tuning : E A D G 	Time Signature 4/4


(Guitar only for first 8 bars)

 w
 |       |       |       |        |       |       |       |       
|--------------------------------|--------------------------------|
|--------------------------------|--------------------------------|
|3-------------------------------|(3)-----------------------------|
|--------------------------------|--------------------------------|

 w
 |       |       |       |        |       |       |       |       
|--------------------------------|--------------------------------|
|--------------------------------|--------------------------------|
|--------------------------------|--------------------------------|
|1-------------------------------|(1)-----------------------------|

 w
 |       |       |       |        |       |       |       |       
|--------------------------------|--------------------------------|
|--------------------------------|--------------------------------|
|3-------------------------------|(3)-----------------------------|
|--------------------------------|--------------------------------|

 w
 |       |       |       |        |       |       |       |       
|--------------------------------|--------------------------------|
|--------------------------------|--------------------------------|
|--------------------------------|--------------------------------|
|1-------------------------------|(1)-----------------------------|

 q       E   E   E   E   E   E    E   E   E   E   E   E   E   E
 |       |       |       |        |       |       |       |       
|--------------------------------|--------------------------------|
|--------------------------------|--------------------------------|
|3-------3---3---3---3---3---3---|3---3---3---3---3---3---3---3---|
|--------------------------------|--------------------------------|

 q       E   E   E   E   E   E    E   E   E   E   E   E   E   E
 |       |       |       |        |       |       |       |       
|--------------------------------|--------------------------------|
|--------------------------------|--------------------------------|
|--------------------------------|--------------------------------|
|1-------1---1---1---1---1---1---|1---1---1---1---1---1---1---1---|

 q       E   E   E   E   E   E    E   E   E   E   E   E   E   E
 |       |       |       |        |       |       |       |
|--------------------------------|--------------------------------|
|--------------------------------|--------------------------------|
|3-------3---3---3---3---3---3---|3---3---3---3---3---3---3---3---|
|--------------------------------|--------------------------------|

 q       E   E   E   E   E   E    E   E   E   E   E   E   E   E
 |       |       |       |        |       |       |       |       
|--------------------------------|--------------------------------|
|--------------------------------|--------------------------------|
|--------------------------------|--------------------------------|
|1-------1---1---1---1---1---1---|1---1---1---1---1---1---1---1---|

 E
 |       |       |       |
|--------------------------------|
|--------------------------------|
|3-------------------------------|
|--------------------------------|

(Bass cuts out)


(Trumpet Solo)

 q       q       q       q        q       q       q       q
 |       |       |       |        |       |       |       |       
|--------------------------------|--------------------------------|
|----------------2-------5-------|3-------2-----------------------|
|3-------5-----------------------|----------------5-------3-------|
|--------------------------------|--------------------------------|

 q       q       q       q        E   E   E   E   E   E   E   E
 |       |       |       |        |       |       |       |       
|--------------------------------|--------------------------------|
|3-------2-----------------------|5---5---3---3---2---2-----------|
|----------------5-------3-------|------------------------5---5---|
|--------------------------------|--------------------------------|

 q       q       q       q        q       q       q       q
 |       |       |       |        |       |       |       |       
|--------------------------------|--------------------------------|
|----------------2-------5-------|3-------2-----------------------|
|3-------5-----------------------|----------------5-------3-------|
|--------------------------------|--------------------------------|

 q       q       q       q        q       q       q       q
 |       |       |       |        |       |       |       |       
|--------------------------------|--------------------------------|
|3-------2-----------------------|2-----------------------5-------|
|----------------5-------3-------|--------5-------3/--------------|
|--------------------------------|--------------------------------|
[ Tab from: http://www.guitartabs.cc/tabs/n/nofx/bob_btab_ver_3.html ]
 q       q       q       q        q       q       q       q
 |       |       |       |        |       |       |       |       
|--------------------------------|--------------------------------|
|----------------2-------5-------|3-------2-----------------------|
|3-------5-----------------------|----------------5-------3-------|
|--------------------------------|--------------------------------|

 q       q       q       q        E   E   E   E   E   E   E   E
 |       |       |       |        |       |       |       |       
|--------------------------------|--------------------------------|
|3-------2-----------------------|5---5---3---3---2---2-----------|
|----------------5-------3-------|------------------------5---5---|
|--------------------------------|--------------------------------|

 q       q       q       q        q       q       q       q
 |       |       |       |        |       |       |       |       
|--------------------------------|--------------------------------|
|----------------2-------5-------|3-------2-----------------------|
|3-------5-----------------------|----------------5-------3-------|
|--------------------------------|--------------------------------|

 E   E   E   E   E   E   E   E    E   E   E   E   E   E   E   E
 |       |       |       |        |       |       |       |       
|--------------------------------|--------------------------------|
|3---3---2---2-------------------|5---5---3---3---2---2-----------|
|----------------5---5---3---3---|------------------------5---5---|
|--------------------------------|--------------------------------|

 w
 |       |       |       |        |       |       |       |       
|--------------------------------|--------------------------------|
|--------------------------------|--------------------------------|
|3-------------------------------|(3)-----------------------------|
|--------------------------------|--------------------------------|

 w
 |       |       |       |        |       |       |       |       
|--------------------------------|--------------------------------|
|--------------------------------|--------------------------------|
|--------------------------------|--------------------------------|
|1-------------------------------|(1)-----------------------------|

 w
 |       |       |       |        |       |       |       |       
|--------------------------------|--------------------------------|
|--------------------------------|--------------------------------|
|3-------------------------------|(3)-----------------------------|
|--------------------------------|--------------------------------|

 q       E   E   E   E   E   E    E   E   E   E   E   E   E   E
 |       |       |       |        |       |       |       |       
|--------------------------------|--------------------------------|
|--------------------------------|--------------------------------|
|--------------------------------|--------------------------------|
|0-------0---0---0---0---0---0---|0---0---0---0---0---0---0---0---|

 E   E   E   E   E   E   E   E    E   E   E   E   E   E   E   E
 |       |       |       |        |       |       |       |       
|--------------------------------|--------------------------------|
|--------------------------------|--------------------------------|
|--------------------------------|--------------------------------|
|1---1---1---1---1---1---1---1---|1---1---1---1---1---1---1---1---|

 E   E.    s E   E   E.    s E    E   E.    s E   E   E.    s E  |    
   |       |       |        |       |       |       |        
|--------------------------------|--------------------------------|
|--------------------------------|--------------------------------|
|3---3-----3-3---3---3-----3-3---|1---1-----1-1---1---1-----1-1---|
|--------------------------------|--------------------------------|

 E   E.    s E   E   E.    s E    E   E.    s E   E   E.    s E 
 |       |       |       |        |       |       |       |       
|--------------------------------|--------------------------------|
|--------------------------------|--------------------------------|
|--------------------------------|--------------------------------|
|1---1-----1-1---1---1-----1-1---|3---3-----3-3---3---3-----3-3---|

(Repeat last four bars)

 q       q       E   E   E   E    q       q       E   E   E   E
 |       |       |       |        |       |       |       |       
|--------------------------------|--------------------------------|
|--------------------------------|--------------------------------|
|3-------3-------3---3---3---1---|(1)-----1-------1---1---1---1---|
|--------------------------------|--------------------------------|

 q       q       E   E   E   E    q       q       E   E   E   E 
 |       |       |       |        |       |       |       |       
|--------------------------------|--------------------------------|
|--------------------------------|--------------------------------|
|--------------------------------|--------------------------------|
|1-------1-------1---1---1---3---|(3)-----3-------3---3---3---3---|

(Repeat last four bars)

 E
 |       |       |       |        
|--------------------------------|
|--------------------------------|
|3-------------------------------|
|--------------------------------|


Key
---

w = whole note
h = half note
q = quarter note
e = eighth note
s = sixteenth note
. = half the value of the note again
Comments