Nofx - Beer Bong Chords & Tabs

 

Beer Bong Chords & Tabs

Nofx Chords & Tabs

Version: 2 Type: Tab 0 ratings
1 star 2 stars 3 stars 4 stars 5 stars
comments

Beer Bong Tab

   
My fave NOFX song

I think this is correct! e-mail me on  if there are mistakes please!

Standard Tuning (e,a,d,g,b,e)

Intro

e---------------------------------------------------------------------|
b---------------------------------------------------------------------|
g-5-5-5let-ring-----7-7-7let-ring---------bass-starts-----------------|
d-5-5-5>>>>>>>>>>>--7-7-7>>>>>>>>>>>--2>>>>>>>>>>>>>>--2--------------|>>>>>>>>>>>>
a-3-3-3>>>>>>>>>>>--5-5-5>>>>>>>>>>>--2>>>>>>>>>>>>>>--2--------------|>>>>>>>>>>>>
e-------------------------------------0>>>>>>>>>>>>>>--0--------------|>>>>>>>>>>>>

verse

 pm.................................................
e----------------------------------------------------|
b----------------------------------------------------|
g----------------------------------------------------|
d----------------------------------------------------|
a--2-2-2-2-22222-2-2-2-2-22222-2-2-2-2-22222-2-2-2-2-|
e--0-3-0-3-00000-0-3-0-3-00000-0-3-0-3-00000-0-3-0-3-|

(if i want some beer...)

guitar 1                     guitar 2

e----------                 e--------------|
b----------                 b--------------|
g---------9                 g--------------|
d---------9 x4              d--------------| x4
a---5---5-7                 a---5---5-7/3--|
e-0-3-0-3--                 e-0-3-0-3------|

then... (pass me the beer bong, it wont take very long)

guitar 1                       guitar 2

e--------------                e------------------|
b--------------                b------------------|
g--------------                g-12-12-12-9-9-9-9-|
d-5-5-5-2-2-2-2 x4             d-12-12-12-9-9-9-9-|
a-5-5-5-2-2-2-2                a-10-10-10-7-7-7-7-|
e-3-3-3-0-0-0-0                e------------------|

Chorus (both guitars)
[ Tab from: http://www.guitartabs.cc/tabs/n/nofx/beer_bong_tab_ver_2.html ]
e------------------------------------------------------------|
b------------------------------------------------------------|
g-7-7-7-5-5-5-------7-7-7-5-5-5--------7-9-7-9-7-9-7-9--7777-|
d-7-7-7-5-5-5-2-2-2-7-7-7-5-5-5-2-2-2--7-9-7-9-7-9-7-9--7777-|
a-5-5-5-3-3-3-2-2-2-5-5-5-3-3-3-2-2-2--5-7-5-7-5-7-5-7--5555-|
e-------------0-0-0-------------0-0-0------------------------|

bridge

guitar 1                           guitar 2

e------------------------          e------------------------|
b------------------------          b------------------------|
g-4-4-4-5-5-5-------7-7-7          g------------------------|
d-4-4-4-5-5-5-5-5-5-7-7-7 x4       d-4-4-4-5-5-5-7-7-5-5-4--| x4
a-2-2-2-3-3-3-5-5-5-5-5-5          a------------------------|
e-------------3-3-3------          e------------------------|

(beer bong, beer bong)both guitars

e-------------------------------------|
b-------------------------------------|
g-------------------------------------|
d-02---------02---------02---------02-|
a-02---------02---------02---------02-|
e-00---------00---------00---------00-|

Then go back to verse, play through all that then play outro

outro (both guitars)

e------------------------------------------------------------------------|
b------------------------------------------------------------------------|
g-5-5-5let-ring-----7-7-7let-ring-----4-4-4let-ring-----5-5-5let-ring----|
d-5-5-5>>>>>>>>>>>--7-7-7>>>>>>>>>>>--4-4-4>>>>>>>>>>>--5-5-5------------|>>>>>>>>>>
a-3-3-3>>>>>>>>>>>--5-5-5>>>>>>>>>>>--2-2-2>>>>>>>>>>>--3-3-3------------|>>>>>>>>>>
e------------------------------------------------------------------------|

e------------------------------------|
b------------------------------------|
g------------------------------------|
d-2>>>>>>>>>>>>>>>>>>>>>>>>>>>>>>>>>>
a-2>>>>>>>>>>>>>>>>>>>>>>>>>>>>>>>>>>
e-0>>>>>>>>>>>>>>>>>>>>>>>>>>>>>>>>>>

Thats it, pretty easy really
Comments