Nofx - Bath Of Least Resistence Chords & Tabs

 

Bath Of Least Resistence Chords & Tabs

Nofx Chords & Tabs

Version: 1 Type: Bass Tab

Bath Of Least Resistence Bass Tab

# main #                                                                >
G----------------------------------------------------------------------->
D----------------------------------------------------------------------->
A-----------------------------------------------------------0-3-2-0----->
E---3/8\1---1-1-3---3-3-0-0-0/5---5-5-5-1---1-1-3---3-3-0-3---------3-2->
>main 
>-------------------------------------------------------------------|
>-------------------------------------------------------------------|
>-------------------------------------------------------------------|
>---1---1-1-3---3-3-0-0-0/5---5-5-5-1---1-1-3---3-0--/5-5---5-5-5-5-|
:
# main2 # X2                                                         
G-------------------------------------------------------------------|
D-----------------------710-9-7-------------------------------------|
A---8---8-810--1010-710--------10-9-8---8-810--10-7-/1212--12121212-|
E-------------------------------------------------------------------|
:
# verse # !play all notes 3X!
G-----------------------------------------------------------|
D---------------3---3-------5---5---3-----------3---3---5---|
A---8-------------------3-----------------------------------|
E-------3---5---------------------------3---5---------------|
:
# chorus # !play all notes 8X!                 
G-----------------------------------------------------------|
D---------------------------3-------------------------------|
A---3-------1-------0---------------3-------1-------0-------|
E-----------------------------------------------------------|
:
# end-chorus # (So can you|please...) !play all notes 3X! *=play once
G-------------------------------------------------------------------|
D---3---5---------------2---3-------3-------------------2---3----*--|
A-----------3---3---0-----------3-----------3---3---0-----------3---|
E---------------------------------------3---------------------------|
:
# main3 #
G-------------------------------------------------------------------------|
D-------------------------------------------------5---5-2-//7-7---7-7-7-7-|
A-----------------------------0-3-2-0-------------------------------------|
E---1//\\\1---1-1-3---3-3-0-3---------3-2-1---1-1-------------------------|
:
Then play verse and chorus.
:
# bridge # ('Cause I'm a|psycho...) *=play 8X                       >
G----*---------------*---------------*------------------------------>
D---3---------------3-------------/15--------------1515151515141214->
A------------------------------------------------------------------->
E------------------------------------------------------------------->
>bridge                                                             >
>----*-------------------------------*------------------------------>
>--10--------------1010101010------10--------------1010101010------->
>----------------------------10-810--------------------------10-7-8->
>------------------------------------------------------------------->
>bridge
>-------------------------------------------------------------------|
>----*--------------3-3-3-3-3-5-3-3--*--------------3-3-3-3-3-5-3-3-|
>---5-------------------------------5-------------------------------|
>-------------------------------------------------------------------|
:
>>>>>>>>to next page...
:
:
BATH OF LEAST RESISTANCE                                                  2/2
:
# end-bridge # (So can you|please...) !play all notes 3X! *=play once
G-------------------------------------------------------------------|
D---3-------------------------------3-------------------2---3----*--|
A-----------3---3---0-----------3-----------3---3---0-----------3---|
E-------3---------------0---1-----------3---------------------------|
:
# main4 #                                                            
G-------------------------------------------------------------------|
D-----------------------------710-9-7-------------------------------|
A---3/10\\8---8-810--1010-710--------10-9-8---8-810--10-7-/12121212-|
E-------------------------------------------------------------------|
:
[ Tab from: http://www.guitartabs.cc/tabs/n/nofx/bath_of_least_resistence_btab.html ]