Nofx - Bag Chords & Tabs

 

Bag Chords & Tabs

Nofx Chords & Tabs

Version: 3 Type: Tab 0 ratings
1 star 2 stars 3 stars 4 stars 5 stars
comments

Bag Tab

   
artist:nofx
CD:White Trash Two Heebs and a Bean (1992)
Song:the bag (sorry I'm not going to write the solo go somewhere else to find that
(thats gonna nock of a rating point)
tuning:dadgbe

introA x2
e|------------------------------------------|
b|------------------------------------------|
g|------------------------------------------|
d|--00-000-00-55-555-55-22-222-22-22-222-22-|
a|--00-000-00-55-555-55-33-333-33-33-333-33-|
d|--00-000-00-55-555-55---------------------|

verseA&B *x6
e|--------------------------------------|
b|--------------------------------------|
g|--------------2*------------------2---|
d|--0*--5*--2*--2---0*--5*--2*--2*--2---|
a|--0---5---3---0---0---5---3---3---0-2-|
d|--0---5-----------0---5---------------|

verse2A&B *x6 #x16
e|-----------------------------|
b|-----------------------------|         then do verseA&B
g|-----------------------------|
d|--7*--5*--3*--3*-2*--2*--5#--|
a|--7---5---3---3--3---3---5---|
d|--7---5---3---3----------5---|

verse3A&B *x6  (Who are talkin at me.....)
e|---------------------------------|
b|---------------------------------|
g|---------------------------------|
d|--3*--5*--7*--7*--3*--3*--5*--5*-|
a|--3---5---7---7---3---3---5---5--|
d|--3---5---7---7---3---3---5---5--|

chorusA  *x6
e|------------------------------------------------------|
b|------------------------------------------------------|
g|----------5*--55555-----------------------------------|
d|--3*--5*--5---55555---555--3*--5*--7*----77777-55555--|
a|--3---5---3---33333---555--3---5---7-----77777-55555--|
d|--3---5---------------555--3---5---7-----77777-55555--|

chorusB *x6 b-bend up  r-release bend
e|------------------------------------------------------|
b|------------------8------------------8-10-10b12-8-10--|
g|----------5*--7b9---7r--5-----------------------------|
d|--3*--5*--5---------------3*--5*--7*------------------|
a|--3---5---3---------------3---5---7-------------------|
d|--3---5-------------------3---5---7-------------------|
[ Tab from: http://www.guitartabs.cc/tabs/n/nofx/bag_tab_ver_3.html ]
end-chorusA&B
e|-----------------------|
b|-----------------------|
g|----------5*-----------|
d|--3*--5*--5-3*-3*--5*--|
a|--3---5---3-3--3---5---|
d|--3---5-----3--3---5---|

bridgeA&B  %-pause
e|--------------------------------|
b|--------------------------------|
g|--5555%%%%5555%%%%5555---575454-|
d|--5555%%%%5555%%%%5555---575454-|
a|--3333%%%%3333%%%%3333---353232-|
d|--------------------------------|

bridge2A %-pause
e|-------------------------------|
b|-------------------------------|
g|-------------------------------|
d|-------------------------------|
a|--3333%%%2222%%%%3333---353232-|
d|-------------------------------|

bridge2B %-pause
e|--------------------------------|
b|--------------------------------|
g|-------------------------575454-|
d|--7777%%%%5555%%%%3333---575454-|
a|--7777%%%%5555%%%%3333---353232-|
d|--7777%%%%5555%%%%3333----------|

bridge3A x8 (Give me something.....)
e|--------------------|
b|--------------------|
g|--------------------|
d|--------------------|
a|--33333----22222----|
d|--------------------|

bridge3B x6 *x6 (Give me something.....)  (last 2 times is the solos bkgrnd)
e|------------------|
b|------------------|
g|------------------|    to lazy to write solo go to another website to get 
d|--7*--5*--3*--5*--|    it
a|--7---5---3---5---|
d|--7---5---3---5---|

verse4A&B x2 *x6
e|------------------|   then play verse3A&B then chorusA or chorusB
b|------------------|
g|--------------2*--|
d|--0*--5*--2*--2---|
a|--0---5---3---0---|
d|--0---5-----------|

end-chorus2A  *x6 %-pause
e|-------------------------------|
b|-------------------------------|
g|----------5-%%%%%%%%%%%%%%%%%%-|
d|--3*--5*--5-%%%%%%%%%%%%%%%%%%-|
a|--3---5---3-%%%%%%%%%%%%%%%%%%-|
d|--3---5------------------------|

end-chorus2B  *x6 #x6 palm-muted %pause
e|-------------------------------|
b|-------------------------------|
g|----------5--%%-------------5--|
d|--3*--5*--5--%%-3#--3#--5#--5--|
a|--3---5---3--%%-3---3---5---3--|
d|--3---5---------3---3---5------|
Comments