Nofx - August 8th Chords & Tabs

 

August 8th Chords & Tabs

Nofx Chords & Tabs

Version: 1 Type: Bass Tab 0 ratings
1 star 2 stars 3 stars 4 stars 5 stars
comments

August 8th Bass Tab

Song: August 8th
Band: NoFX
Album: Heavy petting zoo
tabbed by: Carlos Pino
[ Tab from: http://www.guitartabs.cc/tabs/n/nofx/august_8th_btab.html ]
    verse & chorus
G:---------------------------------------------------------------
D:---------------------------------------------------------------
A:-3-3--------------------------3-3-3-------------------3-3-3-3-3
E:-------3-3-3--5-5-5-5--3-3-3---------3-3-3-3--1-1---------------

G:---------------------------------------------------------------
D:---------------------------------------------------------------
A:-3-3----------------------------3-3-3-------------------3-3-3-3-3
E:-------3-3-3--5-5-5-5-5--3-3-3----------3-3-3-3--1-1--------------

Comments