Nofx - And Now For Something Completly Similar Chords & Tabs

 

And Now For Something Completly Similar Chords & Tabs

Nofx Chords & Tabs

Version: 1 Type: Tab 0 ratings
1 star 2 stars 3 stars 4 stars 5 stars
comments

And Now For Something Completly Similar Tab

Artist:Nofx
Song:And Now For Something Completely Similar
Album:Pump Up the Vallum
Tabbed by:Joe L
E-mail: anti_government@hotmail.com
Tuneing: standard
[ Tab from: http://www.guitartabs.cc/tabs/n/nofx/and_now_for_something_completly_similar_tab.html ]
>m=palm mute
E--------------------------------------------------->
B--------------------------------------------------->
G--12----12----1212121212--12----12----1212121212--->
D--1212121212121212121210--1212121212121210101010--->
A--1010101010101010101010--1010101010101010101010--->
E-----m-m---m-m---------------m-m---m-m------------->
# intro #B                                          >
E--------------------------------------------------->
B--------------------------------------------------->
G--------------------------------------------------->
D--------------------------------------------------->
A--------------------------------------------------->
E--------------------------------------------------->
>introA   
>---------------------------------------------------|
>---------------------------------------------------|
>--12----12----1212121212--12----12----1212121212---|
>--1212121212121212121210--1212121212121210101010---|
>--1010101010101010101010--1010101010101010101010---|
>-----m-m---m-m---------------m-m---m-m-------------|
>introB   
>---------------------------------------------------|
>---------------------------------------------------|
>--------------------------------------1212121212---|
>--------------------------------------1210101010---|
>--------------------------------------1010101010---|
>---------------------------------------------------|
:
E---------------------------------------------------|
B---------------------------------------------------|
G--12----12----1212121212--12----12----1212121212---|
D--1212121212121212121210--1212121212121210101010---|
A--1010101010101010101010--1010101010101010101010---|
E-----m-m---m-m---------------m-m---m-m-------------|
:
E---------------------------------------|
B------------------------------------*--|
G---7-------8-------7-------6-------5---|
D---------------------------------------|
A---5-------6-------5-------4-------3---|
E---------------------------------------|

E---------------------------------------|
B------------------------------------*--|  
G--16------15------15------14------12---|
D---------------------------------------|
A--14------13------13------12------10---|
E---------------------------------------|
:
E---------------------------------------------------|
B----*---------*-----*------------------------------| 
G--12------1212----12----------------*-----------*--|
D--12----121210--1212----12--*-----10------101012---|
A--10-----91010---910-----910------10------101012---|
E--------------------------12-------8-------8-810---|
:

:
# outro 
E---------------------------|
B---------------------------|
G---------------------------|
D---5-------5-------5-------|
A---5-------5-------5-------|
E---3-%%%%%%3-%%%%%%3-%%%%%%|
:

LYRICS:
And Now For Something Completely Similar

And now welcome to our CD
Can you hear the blatant similarity
To Linoleum and Shadows of Defeat


(:thats the whole song:)

Comments