Nofx - All Outta Angst Chords & Tabs

 

All Outta Angst Chords & Tabs

Nofx Chords & Tabs

Version: 1 Type: Tab 0 ratings
1 star 2 stars 3 stars 4 stars 5 stars
comments

All Outta Angst Tab

   
ALL OUTTA ANGST by NOFX. Album : So long and thanks for all the shoes (1997)
Whew! Because of the skank-guitar, this was so hard to tab that it almost
blew my head off! 
:
# intro # X2  !play all notes X4 with ska-rhythm!
E---8---7---5---5---|
B---8---8---5---5---|
G---9---9---6---6---|
D--10---9---7---7---|
A--10---7---7---7---|
E---8-------5---5---|
:   C   Em  A   A
:
# verse #   \_/=play 4X with ska-rhythm   \*/=play with distortion        
E---8---8---7---7---5---3---1-----3---8---8---7---7-------------------|
B---8---8---8---8---5---3----1----3---8---8---8---8-------------------|
G---9---9---9---9---6---4-----2---4---9---9---9---9-------------------|
D--10--10---9---9---7---5------3--5--10--10---9---9---7---5---3---5---|
A--10--10---7---7---7---5-------3-5--10--10---7---7---7---5---3---5---|
E---8---8-----------5---3---------3---8---8-----------5---3---1---3---|
:   C   C   Em  Em  A   G   F     G   C   C   Em  Em
:   \___________________/         \_______________/   \***********/
:
Then play introX6, verse and introX6 (end with first note).
That's about it!
Tabbed by Jussi Heinonen 10.09.1998.

[ Tab from: http://www.guitartabs.cc/tabs/n/nofx/all_outta_angst_tab.html ]
Comments