Nofx - All Outta Angst Chords & Tabs

 

All Outta Angst Chords & Tabs

Nofx Chords & Tabs

Version: 3 Type: Bass Tab 0 ratings
1 star 2 stars 3 stars 4 stars 5 stars
comments

All Outta Angst Bass Tab

   
Title: All Outta Angst
Artist: Nofx
Album: Greatest Hits Ever Written (By Us)

Tabbed by: Guido

Tuning: Standard (E A D G)

| /  slide up
| \  slide down
| h  hammer-on
| p  pull-off
| ~  vibrato
| +  harmonic
| x  Mute note



G|-------------------------------------------------------------------||\
D|---2-3-2-5-3-2-0-----0-2-3-2-0-2-----------------------------------|| \x2 
A|-3---------------0-3-----------------------------------------------|| /
E|-------------------------------------------------------------------||/
[ Tab from: http://www.guitartabs.cc/tabs/n/nofx/all_outta_angst_btab_ver_3.html ]
G|---------------------------------2-0-------------------------------||
D|---2-3-2-5-3-2-0-2-3-2-3-2-0---0-----3-2-3-2-0---------------------||
A|-3---------------------------3-----------------3-------------------||
E|-------------------------------------------------------------------||

G|-------------------------------------------------------------------||
D|-3/5-5-5-5---2-3-2-5-3-2-0-2-3-2-3-2-0---0----0---5---3---5--------||
A|-----------3---------------------------3---------------------------||
E|-------------------------------------------------------------------||

Then Play:

Riff 1: x6
Riff 2: x1
Riff 3: x1
Riff 1: x6
End on C on the A string.
Comments