Nofx - A200 Club Chords & Tabs

 

A200 Club Chords & Tabs

Nofx Chords & Tabs

Version: 1 Type: Bass Tab 0 ratings
1 star 2 stars 3 stars 4 stars 5 stars
comments

A200 Club Bass Tab

Song:A200 Club  
Band: NOFX
Album:Liberal Animation
tabbed by: Paolo Simonato  (simonato@cyberbeach.net)



First Part
G:---------------------------------------------------------------
D:---------------------------------------------------------------
A:---7>---3--3--3------------------------------------------------
E:0>---3>--3--3--------------------------------------------------
[ Tab from: http://www.guitartabs.cc/tabs/n/nofx/a200_club_btab.html ]
Second Part
G:---------12-12-11-11-9-----------------------------------------
D:-----------------------13-11-10--------------------------------
A:---------------------------------------------------------------
E:0>-3>-5>-------------------------------------------------------

Third Part
G:---------------------------------------------------------------
D:--------------------3---3--------------------------------------
A:----7-----3---3---3---3----------------------------------------
E:0-0---3-----3---3---------3------------------------------------


Comments