Nofx - 60 Chords & Tabs

 

60 Chords & Tabs

Nofx Chords & Tabs

Version: 1 Type: Bass Tab

60 Bass Tab

Song:60%
Band:NOFX
Album:Wolves in Wolves' Clothing
Tabbed By :Bobby-Jimmy 
e-mail:middlefingerresponse21@hotmail.com

*=play 8 times
#=play 4 times
~=let note ring

First song on the record and one of the best.


Intro 0:23     -2X-
G:----------|--------------------------------------------]
D:----------|--------------------------------------------]
A:----------|-0~---------5~-7~---------------------------]
E:-0-2-4----|-------2~-----------------------------------]

G:-------------------------------------------------------]
D:-------------------------------------------------------]
A:-0~---------0-2~------------0~---------------2~--------]
E:-------2-4-----------0~----------3~--2~--1~-------0~---]

Verse Intro 1:14
G:-------------------------------------------------------]
D:-------------------------------------------------------]
A:-0----0-0--0-------------------------------------------]
E:-------------------------------------------------------]
[ Tab from: http://www.guitartabs.cc/tabs/n/nofx/60_btab.html ]
Verse Part 1: 2X 1:18
G:-------------------------------------------------------]
D:-------------------------------------------------------]
A:-0**-------5*--7*---0**--------------------------------]
E:------2**----------------------------------------------]

Verse Part 2:
G:-------------------------------------------------------]
D:-----------------2\4#-2#-0#----------------------------]
A:-2**------0**---------------4#-------------------------]
E:------0**-----2*---------------------------------------]

G:-------------------------------------------------------]
D:----------------4*------2**----------------------------]
A:-2**-----0**--------2**--------------------------------]
E:-----0**-----2*----------------------------------------]

Then play Verse Part 1 once

Outro: 2:
G:-------------------------------------------------------]
D:-------------------------------------------------------]
A:-0**-------5~-------0~-----------\12~--\12-------------]
E:------2**------0~--------------------------------------]


4/22/06