Nofx - 13 Stitches Chords & Tabs

 

13 Stitches Chords & Tabs

Nofx Chords & Tabs

Version: 1 Type: Tab 0 ratings
1 star 2 stars 3 stars 4 stars 5 stars
comments

13 Stitches Tab

NOFX - 13 Stitches
By;Andrew (Guitarguyx182@aol.com)

this song is simple but kick ass at the same time CHEERS!


The Whole Song
e|---------------------------------------------------------------------------|
B|---------------------------------------------------------------------------|
G|------------------5-5-5-5------------------------5-5-5-5-------------------|
D|-5-5-5-5-7-7-7-7--5-5-5-5-5-5-5--5-5-5-5-7-7-7-7-5-5-5-5-5-5-5-5-----------|
A|-5-5-5-5-7-7-7-7--3-3-3-3-5-5-5--5-5-5-5-7-7-7-7-3-3-3-3-5-5-5-5-----------|
E|-3-3-3-3-5-5-5-5----------3-3-3--3-3-3-3-5-5-5-5---------3-3-3-3-----------|
[ Tab from: http://www.guitartabs.cc/tabs/n/nofx/13_stitches_tab.html ]
e|---------------------------------------------------------------------------|
B|---------------------------------------------------------------------------|
G|-7-7-7-7---------5-5-5-5------------7-7--7-7------------5--5--5-7-7-7------|
D|-7-7-7-7-2-2-2-2-5-5-5-5--5--5-5-5--7-7--7-7--2--2-2-2--5--5--5-7-7-7------|
A|-5-5-5-5-2-2-2-2-3-3-3-3--5--5-5-5--5-5--5-5--2--2-2-2--3--3--3-5-5-5------|
E|---------0-0-0-0----------3--3-3-3------------0--0-0-0---------------------|
Solo
e|-2-2-2-0-2-3-0-12-12-12-------10-7-7--2-2-2-0-2-3-0-7/8-8-8-7-7-8-7-7-5-5--|
B|------------------------10/13----------------------------------------------|
G|---------------------------------------------------------------------------|
D|---------------------------------------------------------------------------|
A|---------------------------------------------------------------------------|
E|---------------------------------------------------------------------------|

the first time i saw the descendents, they were the fastest band i'd ever seen
no one in the crowd really cared for them, we were waiting for The Ally Cats to play
after a couple months i heard Kabuki Girl, on Rodney On The Roo late sunday night
that was enough for me, i hopped the bus to Licorice Pizza and baught my all time
favorite record

the next time i went to the whiskey, it was DOA with Millions of Dead Cops
the latter band played faster than i could believe
but the songs sounded the same and kinda sucked
'cept John Wayne was a Nazi, and Joey Shithead was a drunk
then John Macias beat some hippie to a pulp, cuz having long hair was a mistake

the third time i went to the hospital, i needed 13 stitches in my head
i managed to catch about 6 songs of Ill Repute, then some suicidal threw me into a post
my girlfriend started to cry cuz we had to leave before DRI played 50 lousy songs
my blood stained shirt smelled of clove cigarettes
but it sure looked pretty cool after a wash
Comments