Nofx - 13 Stitches Acoustic Chords & Tabs

 

13 Stitches Acoustic Chords & Tabs

Nofx Chords & Tabs

Version: 1 Type: Tab 0 ratings
1 star 2 stars 3 stars 4 stars 5 stars
comments

13 Stitches Acoustic Tab

13 stitches (acoustic)
NOFX
13 stitches EP (2003)

Intro/Verse

e|-----------------------| 
B|-----------------------| 
G|--------5--------------| 
D|--5--7--5--5-----------|  
A|--5--7--3--5-----------| 
E|--3--5-----3-----------| 


Chorus Gtr.A 

e|--------------| 
B|--------------| 
G|---7--9--5----| 
D|---7--9--5--5-| 
A|---5--7--3--5-| 
E|------------3-| 


Chorus Gtr.A 

e|--------------| 
B|--------------| 
G|---7--9--5--7-| 
D|---7--9--5--7-| 
A|---5--7--3--5-| 
E|--------------| 


Chorus Gtr.B

e|--2--0--0--3------| 
B|--3--0--1--3------| 
G|--2--1--0--0------| 
D|--0--2--2--0------| 
A|-----2--3--2------| 
E|-----0-----3------| 


Chorus Gtr.B

e|--2--0--0--2------| 
B|--3--0--1--3------| 
G|--2--1--0--2------| 
D|--0--2--2--0------| 
A|-----2--3---------| 
E|-----0------------|


Solo Gtr. A 

e|---------------------------------------| 
B|--7-7-7---5-7-8-5---3-5-5-5-3-1-0------| 
G|---------------------------------------| 
D|---------------------------------------| 
A|---------------------------------------| 
E|---------------------------------------| 


Solo Gtr. A 
[ Tab from: http://www.guitartabs.cc/tabs/n/nofx/13_stitches_acoustic_tab.html ]
e|----------------------------------------| 
B|--7-7-7---5-7-8-5---1-1-1-1-1-0---------| 
G|--------------------------------2-2-----| 
D|----------------------------------------| 
A|----------------------------------------| 
E|----------------------------------------| 


Solo Gtr.B

e|--2--0--0--3------| 
B|--3--0--1--3------| 
G|--2--1--0--0------| 
D|--0--2--2--0------| 
A|-----2--3--2------| 
E|-----0-----3------|


End

e|--------------| 
B|--------------| 
G|--------------| 
D|-----5--------| 
A|-----5--------| 
E|-----3--------|


Order

Intro/Verse X2
Chorus
Intro/Verse X2
Chorus
Solo
Intro/Verse X2
Chorus
End


Lyrics:

The first time I saw the Descendents, they were the fastest band I'd ever seen
No one in the crowd really cared for them, we we're waiting for the Alley Cats to play
After a couple months I heard Kabuki Girl, on Rodney on the ROQ late sunday night
That was enough, for me I hopped the bus, to Licorice pizza and bought my all time favorite record

The next time I went to the Whiskey, it was DOA with millions of dead cops
The latter band played faster than I could believe
But the songs sounded the same and kinda sucked
'cept John Wayne was a nazi, and Joey Shithead was a drunk
Then John Macias beat some hippie to a pulp, cuz having long hair was a mistake

The third time I went to the hospital, I needed 13 stitches in my head 
I managed to catch about 6 songs of Ill Repute, then some suicidal threw me into a post
My girlfriend started to cry cuz we had to leave before DRI played 50 lousy songs
My blood stained shirt smelled of clove cigarettes
But it sure looked pretty cool after a wash 
Comments