Noel Cabangon - Kanlungan Chords & Tabs

 

Kanlungan Chords & Tabs

Noel Cabangon Chords & Tabs

Version: 3 Type: Tab 0 ratings
1 star 2 stars 3 stars 4 stars 5 stars
comments

Kanlungan Tab

Kanlungan
Noel Cabangon

I've got the solo of Kanlungan, itinuro muna ng kapatid ko ang solo niya nito at 
ko nalang yung mga hindi tono para sa akin at inilapit-lapit ko ang mga nota sa mga fret para 
abutin ninyo.
Madali lang itong solo, kung naging familiar na kayo sa solong ito, lalong mapapadali 
pagkuha niyo nito at ng timing...

Eto na yata iyon, parang accurate naman ito ehh...
[ Tab from: http://www.guitartabs.cc/tabs/n/noel_cabangon/kanlungan_tab_ver_3.html ]
Solo: (effect: distortion)
eó-5s7----7-----------|--------------------7--------|
B------5----4---------|------5------7-7s9---7s9-----|
G--------------6--4---|--5s6---6-8-9----------------|
D---------------------|-----------------------------|
A---------------------|-----------------------------|
E---------------------|-----------------------------|

eó7s9-7--9-11-12--12-9-7-7s9--|----------------------|
B-----------------------------|------5---5h7-5---5---|
G-----------------------------|--4s6---6-------6-----|
D-----------------------------|----------------------|
A-----------------------------|----------------------|
E-----------------------------|----------------------|

Kung pwede paki-rate nalang kung nagustuhan niyo...
Comments