Nodes Of Ranvier - World Chords & Tabs

 

World Chords & Tabs

Nodes Of Ranvier Chords & Tabs

Version: 1 Type: Tab 0 ratings
1 star 2 stars 3 stars 4 stars 5 stars
comments

World Tab

   
Don't get mad if these tabs are wrong, this is my first time, and there aren't any other 
tabs to go off so, ya.
Drop D
Hammer on whole riff
E-1/12-12-7-7-8-8-5-5-7-7-3-3-5-5-1-0-1-0---------|
B-------------------------------------------------|
G-------------------------------------------------|
D-------------------------------------------------|        X5
A-------------------------------------------------|
E-------------------------------------------------|


E-12-7-8-12-7-8-1-7-8-3-8-7I-8-7-8-7-8-7-8-7-8-7-------------------------|..
B--------------------------I---------------------------------------------|
G--------------------------I---------------------------------------------|
D--------------------------I---------------------------------------------|        X2
A--------------------------I---------------------------------------------|
E--------------------------I---------------------------------------------|
Tremelo Pick above riff

E-----------------------------------------------------------------|
B-----------------------------------------------------------------|
G-----------------------------------------------------------------|
D-14-14-14-14-9-10-14-14-14-14-9-10-3-3-3-3-9-10-5-5-5-5-10-9-----|    X2
A-12-12-12-12-7-8--12-12-12-12-7-8--1-1-1-1-7-8-3-3-3-3-8--7-----|
E-----------------------------------------------------------------|


E-------------------------------------------------|
B-------------------------------------------------|
G-------------------------------------------------|
D-14-14-14-14-9-10-14-14-14-14-9-10-3-9-10-5-10-9-|
A-12-12-12-12-7-8--12-12-12-12-7-8--1-7-8-3-8--7-|
E-------------------------------------------------|

[ Tab from: http://www.guitartabs.cc/tabs/n/nodes_of_ranvier/world_tab.html ]
E---------------------------------------------------------------|
B---------------------------------------------------------------|
G---------------------------------------------------------------|
D-14-14-14-14-9-10-14-14-14-14-9-10-3-3-3-3-9-10-5-5-5-5-10---9-|
A-12-12-12-12-7-8--12-12-12-12-7-8--1-1-1-1-7-8-3-3-3-3-8----7-|
E---------------------------------------------------------------|


E--------------------------------------------------------------|
B--------------------------------------------------------------|
G--------------------------------------------------------------|
D---------------12-12-12-12-12-12-11-10------------------------|	X4
A-0-0-^7/0-0-0-xx-xx-xx-xx-xx-xx-xx-xx------------------------|
E-0-0-^7/0--0-0-12-12-12-12-12-12-11-10------------------------|


E--------------------------------------------------------------|
B--------------------------------------------------------------|
G-14-14-12-12-15-15-10-10-9-9-8--------------------------------|
D--------------------------------------------------------------|	X4
A--------------------------------------------------------------|
E--------------------------------------------------------------|


E--------------------------------------------------------------|
B--------------------------------------------------------------|
G-14-14-12-12-15-15-10-10-9-9-8--------------------------------|
D-xx-xx-xx-xx-xx-xx-xx-xx-x-x-x--------------------------------|
A-12-12-10-10-13-13-8--8--7-7-6--------------------------------|
E--------------------------------------------------------------|


E--------------------------------------------------------------|
B--------------------------------------------------------------|
G-14-14-14/15/14-12-12-12/14/12-15-15-15/17/15-10-9-9-8--------|
D-xx-xx-xx-xx-xx-xx-xx-xx-xx-xx-xx-xx-xx-xx-xx-xx-x-x-x--------|	X4
A-12-12-12/13/12-10-10-10/12/10-13-13-13/15/13-8--7-7-6--------|
E--------------------------------------------------------------|
Play above riff twice, let ring. Play twice, don't let ring.
Comments