Nocturnal Rites - The Iron Force Chords & Tabs

 

The Iron Force Chords & Tabs

Nocturnal Rites Chords & Tabs

Version: 1 Type: Tab 0 ratings
1 star 2 stars 3 stars 4 stars 5 stars
comments

The Iron Force Tab

                                       THE IRON FORCE
                                     BY NOCTURNAL RITES
                             FROM THE ALBUM THE SACRED TALISMAN

 
 TABBED BY DANIEL KALANDER
 daniel.kalander@swipnet.se

 NORMAL TUNING

  INTRO AND VERSE RIFF x4
e|-----------------------------------------------------------------------------|
B|-----------------------------------------------------------------------------|
G|--4------2-2-2-4-4-4---------------------------------------------------------|
D|--2------0-0-0-2-2-2------4-4-4-5-5-5-------2--------------------------------|
A|--------------------------2-2-2-3-3-3-------0---------2----2--3--2-----2-----|
E|---------------------------------------------------3----------------5-----3--|

 
  CHORUS RIFF
e|------------------------------------------------------------------------------------------|
B|------------------------------------------------------------------------------------------|
G|--------------------------4------------------------------------------------4---8----------|
D|-5-----5-----7-----7------4----------2------------5-----5-----2-----2--------------4---7--|
A|-3-3-3-3-3-3-5-5-5-5-5-5--2---2-3-5--2------------3-3-3-3-3-3-0-0-0-0-0-0--2---6----------|
E|-------------------------------------0---0-2-3-0-----------------------------------2---5--|

e|---------------------------------------------------------------------------------------|
B|---------------------------------------------------------------------------------------|
G|--------------------------4--------------------------------------------7---7--7--7--7--|
D|-5-----5-----7-----7------4----------2------------5-----5-----5-----5--7---7--7--7--7--|
A|-3-3-3-3-3-3-5-5-5-5-5-5--2---2-3-5--2------------3-3-3-3-3-3-3-3-3-3--5---5--5--5--5--|
E|-------------------------------------0---0-2-3-0---------------------------------------|

  
  INTRO AND VERSE RIFF x4
  CHORUS RIFF
  

e|-----------------------------------------------------------------------------|
B|-----------------------------------------------------------------------------|
G|--4------2-2-2-4-4-4---------------------------------------------------------|
D|--2------0-0-0-2-2-2------4-4-4-5-5-5-------2--------------------------------|
A|--------------------------2-2-2-3-3-3-------0---------2----2--3--2-----2-----|
E|---------------------------------------------------3----------------5-----3--|

e|--------------------------------------------------------------------------------|
B|--------------------------------------------------------------------------------|
G|--4------2-2-2-4-4-4------------------------------------------------------------|
D|--2------0-0-0-2-2-2------4-4-4-5-5-5-------2--------------------------------2--|
A|--------------------------2-2-2-3-3-3-------0---------2----2--3--2-----2-----2--|
E|---------------------------------------------------3----------------5-----3--0--|
[ Tab from: http://www.guitartabs.cc/tabs/n/nocturnal_rites/the_iron_force_tab.html ]
 
  SOLO RYTHM
e|----------------------------------------------------------------------------------------------|
B|----------------------------------------------------------------------------------------------|
G|-------------------------------------------------------------------------------------7-----7--|
D|-------------------------------------7-----7-----------------------------------------7-----7--|
A|-4-----4-----4-----4-----2-----2-----5-5-5-5-5-5-4-----4-----4-----4-----2-----2-----5--5--5--|
E|-2-2-2-2-2-2-2-2-2-2-2-2-0-0-0-0-0-0-------------2-2-2-2-2-2-2-2-2-2-2-2-0-0-0-0-0-0----------|

e|-----------------------------------------------------------------------------------|
B|-----------------------------------------------------------------------------------|
G|--------------------------------------------------------------------------------7--|
D|-------------------------------------7-----7-----------------------------2------7--|
A|-4-----4-----4-----4-----2-----2-----5-5-5-5-5-5-4-----4-----4-----4-----2------5--|
E|-2-2-2-2-2-2-2-2-2-2-2-2-0-0-0-0-0-0-------------2-2-2-2-2-2-2-2-2-2-2-2-0---------|

e|-----------------------------------------------------------------------------------------------|
B|-----------------------------------------------------------------------------------------------|
G|-----------------------------------------------------------------------------------------------|
D|-5-----5-----5-----5-----7-----7-----7-----7---------------------------------------------------|
A|-3-3-3-3-3-3-3-3-3-3-3-3-5-5-5-5-5-5-5-5-5-5-5-5-5---5-----4-----4-----2-----2-----2-----2-----|
E|-------------------------------------------------3-3-3-3-3-2-2-2-2-2-2-0-0-0-0-0-0-0-0-0-0-0-0-|

e|---------------------------------------------------------------------------------|
B|---------------------------------------------------------------------------------|
G|-----------------------------------------------------------------7--7------5--5--|
D|-5-----5-----5-----5-----7-----7-----7-----7--------2------------7--7------5--5--|
A|-3-3-3-3-3-3-3-3-3-3-3-3-5-5-5-5-5-5-5-5-5-5-5-5-5--2------------5--5------3--3--|
E|----------------------------------------------------0----------------------------|

e|-------------------------------|
B|-------------------------------|
G|-2--------4--------5--------7--|
D|-2--------4--------5--------7--|
A|-0--------2--------3--------5--|
E|----------2--------------------|

  
  AFTER SOLO x2
e|---------------------------------------------------------|
B|---------------------------------------------------------|
G|-----------------7------4----------------------5------7--|
D|-2---2---5---5---7------4------2---2---5---5---5------7--|
A|-2---2---5---5---5------2------2---2---5---5---3------5--|
E|-0---0---3---3-----------------0---0---3---3-------------|


  CHORUS RIFF


e|--------------------------------------------------------|
B|--------------------------------------------------------|
G|--4------2-2-2-4-4-4------2-2-2-4-4-4------2-2-2-4-4-4--|
D|--2------0-0-0-2-2-2------0-0-0-2-2-2------0-0-0-2-2-2--|
A|--------------------------------------------------------|
E|--------------------------------------------------------|

e|-----------------------------------------------------------------------------|
B|-----------------------------------------------------------------------------|
G|--4------2-2-2-4-4-4---------------------------------------------------------|
D|--2------0-0-0-2-2-2------4-4-4-5-5-5-------2--------------------------------|
A|--------------------------2-2-2-3-3-3-------0---------2----2--3--2-----2-----|
E|---------------------------------------------------3----------------5-----3--|
Comments