Nochairs - Nacht Ohne Morgen Chords & Tabs

 

Nacht Ohne Morgen Chords & Tabs

Nochairs Chords & Tabs

Version: 1 Type: Tab 0 ratings
1 star 2 stars 3 stars 4 stars 5 stars
comments

Nacht Ohne Morgen Tab

   
no.chairs, Nacht ohne Morgen
============================
transcribed by JPT, alexdelarge@lycosmail.com, B√ľnde/Germany


TABULATURE FOR TWO GUITARS (like original line-up)

INTRO (keyboard with wind sounds)

clean guitar
   A5       A5/C     A5             F5       F5/D     F5
e-------------------------------------------------------------------|
h-------------------------------------------------------------------|
g--2--------2--------2----------------------------------------------|
D--2-2-2-2--2-2-2-2--2-2-2-2----------------------------------------|	2 times
A--0-0-0-0--3-3-3-3--0-0-0-0--3-2---3-3-3-3--5-5-5-5--3-3-3-3--5----|
E-----------------------------------1-1-1-1--1-1-1-1--1-1-1-1--1-3--|

distorted guitar
e-------------------------------------------------------------------|----
h-------------------------------------------------------------------|----
g-------------------------------------------------------------------|----
D-------------------------------------------------------------------|----  2 times
A-----------------------------3-2-----------------------------------|--0-
E----------------------------------1---------------------------1-3--|----


MAIN RIFF

distorted guitar I + II
  A5                      F5
e------------------------------------------------
h------------------------------------------------
g--2---------------------------------------------
D--2--X-X--2-X--2-2---------3-------3-X--3-3-------		2 times
A--0--0-0--3-3--0-0--3-2----3--X-X--3-X--3-3-------
E---------------------------1--1-1--1-1--1-1--1-3--

VERSE
[ Tab from: http://www.guitartabs.cc/tabs/n/nochairs/nacht_ohne_morgen_tab.html ]
clean guitar I
   Am				    F
e------------------------------------------------------------------
h----1-----1-----0-----1-----1--------1-----1-----3-----3--1--0-H1-
g------2-----2-----2-----2-----2--------2-----2-----2--------------	4 times
D-----------------------------------3-----3-----3-----3------------
A--0-----0-----0-----0-----0-----0---------------------------------
E------------------------------------------------------------------

clean guitar II
   A5       A5/C     A5             F5       F5/D     F5
e-------------------------------------------------------------------
h-------------------------------------------------------------------
g--2--------2--------2----------------------------------------------	4 times
D--2-2-2-2--2-2-2-2--2-2-2-2----------------------------------------
A--0-0-0-0--3-3-3-3--0-0-0-0--3-2---3-3-3-3--5-5-5-5--3-3-3-3--5----
E-----------------------------------1-1-1-1--1-1-1-1--1-1-1-1--1-3--

  ending last time:
   Dm
e--1-1-1-1--
h--3-3-3-3--
g--2-2-2-2--
D-----------
A-----------
E-----------

REFRAIN

distorted guitar I + II
   D5          F5        F5 E5 D5  C5          A5
e----------------------------------------------------------------
h----------------------------------------------------------------
g--7--X-X-7--X-10--------10-9-7----5--X-X-5--X-2-----------------
D--7--X-X-7--X-10--------10-9-7----5--X-X-5--X-2----------------- 	3 times
A--5--5-5-5--5-8---------8--7-5----3--3-3-3--3-0--(3-2-0-2----)--
E-------------------------------------------------(--------3-2)--
						  (only guit.1)
   D5          F5        F5 E5 D5  A5           G5
e-----------------------------------------------------------
h-----------------------------------------------------------
g--7--X-X-7--X-10--------10-9-7-----------------------------
D--7--X-X-7--X-10--------10-9-7----7--X-X-7--X--5-----------
A--5--5-5-5--5-8---------8--7-5----7--X-X-7--X--5-----------
E----------------------------------5--5-5-5--5--3------1-3--

MAIN RIFF

VERSE

REFRAIN...

Comments