Nobuo Uematsu - Sight Of Spira Chords & Tabs

 

Sight Of Spira Chords & Tabs

Nobuo Uematsu Chords & Tabs

Version: 1 Type: Tab 0 ratings
1 star 2 stars 3 stars 4 stars 5 stars
comments

Sight Of Spira Tab

                    The Sight Of Spira   [final fantasy X OST]                          


                                                  Nobuo Uematsu
Spar 1 Standard tuning
Piano sheet music Transtabbed by DomX 
email: silver_wings_dx@hotmail.com
 
you really need the piano to compliment this, otherwise it doesnt have the
same effect, otherwise enjoy !!


                                                                      
E||------5------0------|-------5---------3----|-------5--------------|
B||------6------8------|-------6---------5----|-------3------5-------|
G||------7-------------|----5-----5------5----|----2---------5--2----|
D||-------------8------|----------------------|----------------------|
A||--------------------|----------------------|----------------------|
E||--------------------|----------------------|----------------------|


                                                                           
----------------7--8--|--------------------8--|--8------------------------|
--3----------8--------|-------6--5----8-------|-------10--10----8--10--8--|
----------------------|--7--------------------|---------------------------|
----------------------|-----------------------|---------------------------|
----------------------|-----------------------|---------------------------|
----------------------|-----------------------|---------------------------|


                                                          
------------------10--|---------------------|----3-------|
------------------12--|---------------------|----1-------|
--10------------------|------x----x----x----|-------2----|
----------------------|------x----x----x----|------------|
----------------------|------x----x----x----|------------|
----------------------|------x----x----x----|------------|


                                                                         
|--------0--1--0----1--3--|--5----6--5--3--------|--5----3--1--0--------|
|---3---------------------|----------------------|----------------------|
|*------------------------|----------------------|----------------------|
|*------------------------|----------------------|----------------------|
|-------------------------|----------------------|----------------------|
|-------------------------|----------------------|----------------------|


                                                                       
--1----0--------------|-------0--1--0----1--3--|--5----6--5--3--------|
----------3--1--------|--3---------------------|----------------------|
----------------------|------------------------|----------------------|
----------------------|------------------------|----------------------|
----------------------|------------------------|----------------------|
----------------------|------------------------|----------------------|


                                                   
--5----3--1--0---------|------------------10--15--|
------------------1----|--1--3--3------8----------|
-----------------------|--------------------------|
-----------------------|--------------------------|
-----------------------|--------------------------|
-----------------------|--------------------------|


                                                        
--17----15--13--12----------|--------------------------|
----------------------13----|--13--15--15--------------|
----------------------------|--------------------14----|
----------------------------|--------------------------|
----------------------------|--------------------------|
----------------------------|--------------------------|


                                                     
--------------------------0--|--5----6--5--3--------|
--------10----------8--6--8--|--6----8--6-----------|
--------10--10--9---9--7-----|----------------------|
--12--------12--10-----------|----------------------|
-----------------------------|----------------------|
-----------------------------|----------------------|


                                                  
--5----3--1--0--------|--1----0--------3---------|
----------------------|----------3--1-----5p3-1--|
----------------------|--------------------------|
----------------------|--------------------------|
----------------------|--------------------------|
----------------------|--------------------------|


                                                                           
-------5--------3--1--3--|--5----6--8---0--------|------------------------|
--3----6--6--5--5--3--5--|--6----8--10--8--------|--10----8--6--5---------|
----------7--5-----------|-----------------------|-------------------5----|
-------------------------|-----------------------|------------------------|
-------------------------|-----------------------|------------------------|
-------------------------|-----------------------|------------------------|


                                                        
------------------10--15--|--17----15--13--12----------|
-----0--0------8----------|----------------------13----|
--5--7--7-----------------|----------------------------|
--7-----------------------|----------------------------|
--------------------------|----------------------------|
--------------------------|----------------------------|

[ Tab from: http://www.guitartabs.cc/tabs/n/nobuo_uematsu/sight_of_spira_tab.html ]
                                                                      
------10--10------------|-------------------3--|--5----8-------------|
--13--------------------|-----------5----6-----|------------8--------|
------------------------|--7-------------------|---------------------|
------------------------|----------------------|---------------------|
------------------------|----------------------|---------------------|
------------------------|----------------------|---------------------|


                                                                        
--5----3--1-----1--1--3--|--5----8---------------|---------------1--3--|
-------------3-----------|------------8----6--5--|--3------------------|
-------------------------|-----------------------|---------------------|
-------------------------|-----------------------|---------------------|
-------------------------|-----------------------|---------------------|
-------------------------|-----------------------|---------------------|


                                                                        
--5----8-------------|--5----3--1-----1--1--3--|--5----8----12----8----|
------------8--------|-------------3-----------|-----------------------|
---------------------|-------------------------|-----------------------|
---------------------|-------------------------|-----------------------|
---------------------|-------------------------|-----------------------|
---------------------|-------------------------|-----------------------|


                                                                
--10----------------|------10----8----6----|--5----------------|
--------------------|----------------------|-------------------|
--------------------|------10----9----7----|--5----------------|
--------------------|----------------------|-------------------|
--------------------|----------------------|-------------------|
--------------------|----------------------|-------------------|


                                                                    
------8----5---------|-----1--1------1----3--|------5----3---------|
----------------5----|--3--------------------|------6----5----6----|
------9----5---------|-----------------------|----------------7----|
----------------5----|-----------------------|---------------------|
---------------------|-----------------------|---------------------|
---------------------|-----------------------|---------------------|


                                                                  
--3--5---------------|------5----12----8----|--10----------------|
---------------------|----------------------|--11----------------|
--------5------------|----------------------|--10----------------|
---------------------|----------------------|--------------------|
---------------------|----------------------|--------------------|
---------------------|----------------------|--------------------|


                                                   
--------------------|-----------------------------|
--15----------------|--------------------------8--|
--14----------------|--------9---10--9-----10--9--|
--14----------------|--12----10--12--10----12-----|
--------------------|-----------------------------|
--------------------|-----------------------------|


                                                   
-------------------------|------------------------|
--10----11--10--8--------|--10----8---------------|
--10----12--10-----------|-----------10--9--------|
-------------------------|------------------------|
-------------------------|------------------------|
-------------------------|------------------------|


                                                     
-----------------3---------|-------0--1--0----1--3--|
--------------------5p3-1--|--3----1--3--1----3--5--|
--10----9--7--5------------|------------------------|
---------------------------|------------------------|
---------------------------|------------------------|
---------------------------|------------------------|


                                                 
--5----6--8---0--------|------------------------|
--6----8--10--8--------|--10----8--6--5---------|
-----------------------|-------------------5----|
-----------------------|------------------------|
-----------------------|------------------------|
-----------------------|------------------------|


                                                        
------------------10--15--|--17----15--13--12----------|
-----0--0------8----------|----------------------13----|
--5--7--7-----------------|----------------------------|
--7-----------------------|----------------------------|
--------------------------|----------------------------|
--------------------------|----------------------------|


                                                          
------10--10------------|------------------------19------|
--13--------------------|------------17-------17---------|
------------------------|---------16-------16------------|
------------------------|---------------17---------------|
------------------------|------19------------------------|
------------------------|--------------------------------|


                                                       
--------------------|---------------------||----|----||
--------------------|---------------------||----|----||
--12----------------|--14----------------*||----|----||
--12----------------|--------------------*||----|----||
--12----------------|---------------------||----|----||
--------------------|---------------------||----|----||
Comments