Nobuo Uematsu - Ronfaure Theme Chords & Tabs

 

Ronfaure Theme Chords & Tabs

Nobuo Uematsu Chords & Tabs

Version: 1 Type: Tab 0 ratings
1 star 2 stars 3 stars 4 stars 5 stars
comments

Ronfaure Theme Tab

This is my first tab I've done and it took me forever.  But there are no FFXI tabbers
out there, so I had to get to work.  If you don't know the song then trust me, its a
good one.  Or if you want a copy of the MP3 or something then Email me
zeroz52@hotmail.com or let me know what you think.

Alan a.k.a. Jory (Retired) 61whm/blm on Cerberus

e|---------2-3----2-3-2-----------------------------------------------|
B|--5--3h5----------------3---5~---------------------------------8-10-|
G|--------------------------------------------------------------------|
D|--------------------------------------------------------------------|
A|--------------------------------------------------------------------|
E|--------------------------------------------------------------------|
[ Tab from: http://www.guitartabs.cc/tabs/n/nobuo_uematsu/ronfaure_theme_tab.html ]
e|---------------10---------------------------------------------------|
B|--12--10h12-13------13--12--10~---13~---12~-------------------------|
G|--------------------------------------------------------------------|
D|--------------------------------------------------------------------|
A|--------------------------------------------------------------------|
E|--------------------------------------------------------------------|

e|---------2-3----2-3-2-----------------------------------------------|
B|--5--3h5----------------3---5~----------------------------------3---|
G|------------------------------------------------------------------5-|
D|--------------------------------------------------------------------|
A|--------------------------------------------------------------------|
E|--------------------------------------------------------------------|

e|------------------2-3------32--------------32-----------------------|
B|---------------3--------5----2-5--------5----2-5--------------------|
G|--4--2h4-5--2-------------------------------------------------------|
D|--------------------------------------------------------------------|
A|--------------------------------------------------------------------|
E|--------------------------------------------------------------------|
Comments