Nobuo - Yuna's Theme Chords & Tabs

 

Yuna's Theme Chords & Tabs

Nobuo Chords & Tabs

Version: 1 Type: Tab 0 ratings
1 star 2 stars 3 stars 4 stars 5 stars
comments

Yuna's Theme Tab

   
E-Scale, No Capo
Off measured, The translation is off, but it should be played on 3rd capo
Translated from Piano format for Acuestick and Electric
Some parts are done in Violin, but can be played exactly with Acuestick
I've added the violin parts in anyways...
Note: The Tablature may have missed a few notes, please find them for me, the intro is not perfect either.

Intro: B(standard Bar)
(Intro) Played by Piano, B-9th is played by flute
The intro may be a bit off since the flute plays very high notes
[E-0------------------------------------------]
[B---1----------------------------------------]
[G-----3--------------------------------------]
[D-------3-5-3-5-7-5--------------------------]
[A-------------------9>>>>>>7-5-3-1-3-5-5-7-9-]
[E--------------------------------------------]

(Verse 1 to Chorus)
E--0-2-5------------------------==----0-2-5--------------------------
B-3-----5-7-5-3-1-3-3-5-3-5-1-1-3----3-----5-7-5-3-1-3-3-5-7-10-6-8--
G--------------------------------------------------------------------
D--------------------------------------------------------------------
A--------------------------------------------------------------------
E--------------------------------------------------------------------
[ Tab from: http://www.guitartabs.cc/tabs/n/nobuo/yunas_theme_tab.html ]
E---------====-------------====-----------0-2-5--------------------------
B-8-6-4-2-====-4-2-0-2-4-2-====4-6-4-8--3------5-7-5-3-1-3-3-5-7-5-3-1-1-
G---------====-------------====------------------------------------------
D---------====-------------====------------------------------------------
A---------====-------------====------------------------------------------
E---------====-------------====------------------------------------------

(Verse 2 to Chorus)
E--0-2-5-------------------------------0-2-5-----------------------------
B-3------5-7-5-3-1-3-3-5-7--9-7-5-3-1-3-----5-7-5-3-1-3-3-5-7-5-7--------
G------------------------------------------------------------------------
D------------------------------------------------------------------------
A------------------------------------------------------------------------
E------------------------------------------------------------------------

E--------------------==------------0-2-5-------------------------====-0-2
B-7-5-3-1-7-5-3-1-3-3==3-7-9-7-11-3-----5-7-5-3-1-3-3-5-7-5-3-1-1====3---
G--------------------==------------------------------------------====----
D--------------------==------------------------------------------====----
A--------------------==------------------------------------------====----
E--------------------==------------------------------------------====----

(Finishing to Fade)
E--0-2-5----]----->
B-3-----5-7-]----->
G-----------]
D-----------]
A-----------]
E-----------]

Notes:

>>> Flute trill, For Guitar it means hold string
== Intermission plays, other instrument is playing
¨ö^ Half lift
¨ù^ Quarter Lift
O  Hammer note
X  Palm Mute
Comments