Nobodys - Sick Of You Chords & Tabs

 

Sick Of You Chords & Tabs

Nobodys Chords & Tabs

Version: 1 Type: Bass Tab 0 ratings
1 star 2 stars 3 stars 4 stars 5 stars
comments

Sick Of You Bass Tab

Song: SICk oF YOu
Band:        nOBODYS
Album: puNK bITES, ANd MOre thaN liKELY ANotHER aLBuM TOO.
tabbed by:jUSTINsLATER punkdork@hotmail.com


VerSE.
G:---------------------------------------------------------------
D:---------------------------------------------------------------
A:-------------------------------------------5---3-----------------
E:----44/5555-5---44/5555-5---44/5555-5----3----------------------
[ Tab from: http://www.guitartabs.cc/tabs/n/nobodys/sick_of_you_btab.html ]
KoRe-Us
G:---------------------------------------------------------------
D:---------------------------------------------------------------
A:------------5------5-7---------------------------------------
E:------3---------5>-----------------------------------------------
LasT TimE ON chorUS Slide fRom The 4 to THe 5 LikE inThe VerSE

EnD
G:---------------------------------------------------------------
D:---------------------------------------------------------------
A:-------------------------------------------------7---5-----------
E:-----44/5555-5---44/5555-5---44/5555-5--44/5555---------5--------

It GoEs SomETHinG lIKe THat.  Who ReaLLyCarES.
Go HErE http://www.angelfire.com/nj/kickedintheballs

Comments