Nobodys - I Hate To Drive Chords & Tabs

 

I Hate To Drive Chords & Tabs

Nobodys Chords & Tabs

Version: 2 Type: Bass Tab 0 ratings
1 star 2 stars 3 stars 4 stars 5 stars
comments

I Hate To Drive Bass Tab

Song: I Hate To Drive
Band:  The Nobodys
Album: Smell Of Victory
tabbed by: Dave Grant


 Intro:   Play 4x's    

G:---------------------------------------------------------------
D:---------------------------------------------------------------
A:----------------------1-1----------------2-3--2-3---------
E:-3-3--1-1--3-3----------3-3--1-1------------------------

 Verse: Play 4x's   

G:---------------------------------------------------------------
D:---------------------------------------------------------------
A:---------------------1-1----------------2-3--2-3-----------
E:-3-3--1-1--3-3---------3-3--1-1-------------------------
[ Tab from: http://www.guitartabs.cc/tabs/n/nobodys/i_hate_to_drive_btab_ver_2.html ]
 Chorus: Play 3x's
               
G:---------------------------------------------------------------
D:---------------------------------------------------------------
A:-----------------------3---------------------------------------
E:-3----3----3----1--------------------------------------------

End Of Chorus

G:---------------------------------------------------------------
D:---------------------------------------------------------------
A:------------------------3-5-5-5-5-5-5-5-5---------------
E:-3-3-3-3-3-3-3-3-----------------------------------------

 Verse: Play 4x's

G:---------------------------------------------------------------
D:---------------------------------------------------------------
A:----------------------1-1---------------2-3--2-3-----------
E:-3-3--1-1--3-3----------3-3--1-1------------------------

Play Chorus Again

Ending: Play 4x's Before *'s
                                                       Very Ending 
G:------------------------------------------------*--------------------
D:------------------------------------------------*--------------------
A:-------------3-3-3-3----1--------------5---*--3---3---3-------
E:-3-3-3-3-------------------1--1--3---------*--------------------
Comments